PrimaNota.ru - самый крупный в мире бесплатный архив песенных текстов, аккордов, табулатур и нот


Sevendust - Torched - таба, видео

Регистрация Запомнить меня
Войти через:  Facebook Google Twitter Vk Yandex Mail.ru

Sevendust - Torched - таба, видео

Печатать
Просмотров: 125
Уроки эстрадного вокала в Санкт-Петербурге
Sevendust: Torched

Transcribed by: mysticguitar77

Facebook: https://www.facebook.com/MysticGuitar77
YouTube Channel: https://www.youtube.com/user/MysticGuitar77

Date last modified: October 15, 2015

Tuning: Modified Drop B (B,F#,B,E,F#,B)

Riff 1
 B|-------------------------------------0-|
F#|-------------------------------------0-|
 E|-------------------------------------3-|
 B|-------------------------------------5-| x3
F#|-0-0-0-0-0-0-0--0-0-0-0--0-0-0-0-0-0---|
 B|-0-0-0-0-0-0-0--0-0-0-0--0-0-0-0-0-0---|
    * * * * * *    * * *    * * * * * *

 B|----------------------------------------------|
F#|----------------------------------------------|
 E|----------------------------------------------|
 B|----------------------------------------------|
F#|-0-0-0-0-0-0-0--0-0-0-----3-------------------|
 B|-0-0-0-0-0-0-0--0-0-0-3h5---5-3-0-3-1-0-1p0-0-|
    * * * * * *    * * *

Riff 2
 B|-0--0--0--0--0-----0--0--0--0-----0--0--0--0~---|
F#|-6--5--3--5--9b10--5--3--5--9b10--5--3--5--6~-\-|
 E|------------------------------------------------|
 B|------------------------------------------------|
F#|------------------------------------------------|
 B|------------------------------------------------|

Riff 3   "Shake the walls with..."
 B|--------------------------------------------------------------------------------------|
F#|--------------------------------------------------------------------------------------|
 E|-------13b-----------------------------------13b--------------------------------------|
 B|-------x-------------------------------------x----------------------------------------|
F#|-0-0-0-11b--0-0-0-0--0-0-0-0--0-0-0-0--0-0-0-11b--0-0-0-0--0-0-0-0--------------------|
 B|-0-0-0------0-0-0-0--0-0-0-0--0-0-0-0--0-0-0------0-0-0-0--0-0-0-0--10-10-10-10-10-10-|
    * * *      * * * *  * * * *  * * * *  * * *      * * * *  * * * *  *  *  *  *  *  *

Play Riff 3 x2   "Burning ashes fall and remove us all..."

Riff 4   "Say what you want..."
 B|-------0--------0-------0--------0--------0---------0---------0----------------|
F#|-------0--------0-------0--------0--------0---------0---------0----------------|
 E|-------7b-------3-------5b-------9b-------10b-------12b-------10b--------------|
 B|-------x--------5-------x--------x--------x---------x---------x----------------|
F#|-0-0-0-5b-0-0-0---0-0-0-3b-0-0-0-7b-0-0-0-8b--0-0-0-10b-0-0-0-8b--5*5*5*5*5*5*-|
 B|-0-0-0----0-0-0---0-0-0----0-0-0----0-0-0-----0-0-0-----0-0-0------------------|
    * * *    * * *   * * *    * * *    * * *     * * *     * * *

Play Riff 4 x2   "Take all you want..."

Riff 5   "You see no one..."
 B|----------------------------------------------------------------------------------------------|
F#|----------------------------------------------------------------------------------------------|
 E|----------------------------------------------------------------------------------------------|
 B|----------------------------------------------------------------5--7-7-8-8-10-10-12--12-12-12-|
F#|-5-5-5-5-5-5-5-5-5-5-5-5-5-5-5-7-7-7-8-8-8-10-10-10-5-5-5-5-5-5-5--7-7-8-8-10-10-12--12-12-12-|
 B|-5-5-5-5-5-5-5-5-5-5-5-5-5-5-5-7-7-7-8-8-8-10-10-10-5-5-5-5-5-5-5--7-7-8-8-10-10-12--12-12-12-|
    * * * * * * * * * * * * * * * * * * * * * *  *  *  * * * * * *

Riff 6   "I try to live with my head on..." 
 B|-------------------------------------------------------------------------------|
F#|-------------------------------------------------------------------------------|
 E|------------------8\5---5\3-----------------------------12b----------------12b-|
 B|------------------x-x---x-x-----------------------------x------------------x---|
F#|-0-0-0-0--0-0-0-0-6\3---3\1--------------0-0-0-0--0-0-0-10b-0-0-0-0--0-0-0-10b-|
 B|-0-0-0-0--0-0-0-0-----0-----0-3-1-0-3ph~-0-0-0-0--0-0-0-----0-0-0-0--0-0-0-----|
    * * * *  * * * *     *     * * * *      * * * *  * * *     * * * *  * * *

 B|------------------------------------------------------------------------------------|
F#|------------------------------------------------------------------------------------|
 E|------------------8\5---5\3---------------------------------------------------------|
 B|------------------x-x---x-x---------------------------------------------------------|
F#|-0-0-0-0--0-0-0-0-6\3---3\1--------------0-0-0-0--0-0-0-0---------------------------|
 B|-0-0-0-0--0-0-0-0-----0-----0-3-1-0-3ph~-0-0-0-0--0-0-0-0--5*5*5*4*4*4*3*3*3*2*2*2*-|
    * * * *  * * * *     *     * * * *      * * * *  * * * *

Play Riff 6 x2   "Why try the world..."
Play Riff 2 x1
Play Riff 3 x2   "All this wreckage, won't give solace..."
Play Riff 4 x2   "Say what you want..."
Play Riff 5 x1   "You see no one..."
Play Riff 6 x2   "I try to live with my head on..."

Riff 7 (all palm-muted)
 B|-------------------------------------------------------------------------|
F#|-------------------------------------------------------------------------|
 E|-12-12-12-14-14-14-15-15-15-14-14-14-12-12-12-14-14-14-15-15-15-14-14-14-|
 B|-------------------------------------------------------------------------|
F#|-------------------------------------------------------------------------|
 B|-------------------------------------------------------------------------|

 B|------------------------------------------------------------------------|
F#|------------------------------------------------------------------------|
 E|-11-11-11-11-11-11-11-11-11-11-11-11-9/11-11-11-11-11-11-11-11-11-11-11-|
 B|------------------------------------------------------------------------|
F#|------------------------------------------------------------------------|
 B|------------------------------------------------------------------------|

 B|-------------------------------------------------------------------------|
F#|-------------------------------------------------------------------------|
 E|-12-12-12-14-14-14-15-15-15-14-14-14-12-12-12-14-14-14-15-15-15-14-14-14-|
 B|-------------------------------------------------------------------------|
F#|-------------------------------------------------------------------------|
 B|-------------------------------------------------------------------------|

 B|----------------------------------------------|
F#|----------------------------------------------|
 E|-11-11-11-12-12-12-14-14-14-15-15-15-17-17-17-|
 B|----------------------------------------------|
F#|----------------------------------------------|
 B|----------------------------------------------|

Riff 7 note: a 2nd guitar plays harmonics similar to the ending of the chorus riff and follows the same
             kind of strumming pattern.

Play Riff 1 x1

Riff 8   "For you the guilty one..."
 B|-------------0------------0--------0--------------0------------0--------0--|
F#|-------------0------------0--------0--------------0------------0--------0--|
 E|-------------5b-----------7b-------7b-------------5b-----------7b-------8b-|
 B|-------------x------------x--------x--------------x------------x--------x--|
F#|-0-0-0-0-0-0-3b-0-0-0-0-0-5b-0-0-0-5b-0-0-0-0-0-0-3b-0-0-0-0-0-5b-0-0-0-6b-|
 B|-0-0-0-0-0-0----0-0-0-0-0----0-0-0----0-0-0-0-0-0----0-0-0-0-0----0-0-0----|
    * * * * * *    * * * * *    * * *    * * * * * *    * * * * *    * * *

Play Riff 5 x2   "You see no one..." (2nd time through, play without any palm-mutes)
Play Riff 6 x2   "I try to live with my head on..."
Play Riff 1 x1
Play Riff 8 x1

Enjoy!!
Добавлено: 21.04.2016
Другие материалы по этой песне:
  • Аккорды и текст

Страница создана 21.04.2016
http://primanota.ru/sevendust/torched-chords.htm
Привет, Гость.
Предлагаем пройти революционный курс по гитаре.
Подарок от PrimaNota.Ru, забирай!