PrimaNota.ru - самый крупный в мире бесплатный архив песенных текстов, аккордов, табулатур и нот


Sevendust - Till Death - таба, видео

Регистрация Запомнить меня
Войти через:  Facebook Google Twitter Vk Yandex Mail.ru

Sevendust - Till Death - таба, видео

Печатать
Просмотров: 117
Уроки эстрадного вокала в Санкт-Петербурге
Sevendust: Till Death

Transcribed by: mysticguitar77

YouTube Username: MysticGuitar77

Date last modified: March 31, 2013

Tuning: Altered Drop B (B,F#,B,E,F#,B)

Riff 1   "Fractured, slowly, closing on me..."
 B|-----------------------------------------------------------|
F#|-----------------------------------------------------------|
 E|-----------------------------------------------------------|
 B|-2\1---2\1---2\1-2-2-2-2-2\1---2\1---2\1-2-2-2-2-0---3---0-|
F#|-2\1---2\1---2\1-2-2-2-2-2\1---2\1---2\1-2-2-2-2-0---3---0-|
 B|-2\1-0-2\1-0-2\1-2-2-2-2-2\1-0-2\1-0-2\1-2-2-2-2-0---3---0-|
        *     *     * * * *     *     *     * * * *     *   *

 B|-----------------------------------------------------------|
F#|-----------------------------------------------------------|
 E|-------------------------------------10b-------10b----10---|
 B|-2\1---2\1---2\1---2\1-2-2-2-2-------x---------x------x--0-|
F#|-2\1---2\1---2\1---2\1-2-2-2-2-------8b--------8b-----8--0-|
 B|-2\1-0-2\1-0-2\1-0-2\1-2-2-2-2-0-0-0-----0-0-0------0----0-|
        *     *     *     * * * *

Play Riff 1 x2   "The scars define the man..."

Riff 2   "I separate myself..."
 B|---------------------------|
F#|---------------------------|
 E|---------------------------|
 B|-2----3---1---2------3---1-|
F#|-2----3---1---2------3---1-|
 B|-2----3---1---2------3---1-|

Play Riff 2 x2   "I can't deny my faith no more..."

Riff 3   "Till death, I separate myself..."
 B|---------------------------------------------|
F#|---------------------------------------------|
 E|---------------------------------------------|
 B|---------------------------------------------|
F#|---------------------------------------------|
 B|-2b3-2-2-0-02-x-0-02-0-2b3-2-2-0-02-x-0-02-0-|

 B|---------------------------------------------|
F#|---------------------------------------------|
 E|---------------------------------------------|
 B|---------------------------------------------|
F#|---------------------------------------------|
 B|-2b3-2-2-0-00-x-0-00-0-2b3-2-2-0-00-x-0-00-0-|

Fill 1   "No one saw it coming..."
 B|-----------------|
F#|-----------------|
 E|-----------------|
 B|-x--x--x--x--x-x-|
F#|-x--x--x--x--x-x-|
 B|-x--x--x--x--x-x-|

Play Riff 1 x2   "Cutting pieces finding nothing..."
Play Riff 2 x1   "I can't deny my faith no more..."
                 (hold the last chord and slide down into the chorus)
Play Riff 3 x2   "Till death, I separate myself..."

Riff 3 alteration (end of the first time through)
 B|--------------------------------------------|
F#|--------------------------------------------|
 E|--------------------------------------------|
 B|--------------------------------------------|
F#|--------------------------------------------|
 B|-2b3-2-2-0-00-x-0-00-0-2b3-2-2-0-0000--0000-|
                                    ****  ****

Riff 4
 B|------------------------|
F#|------------------------|
 E|------------------------|
 B|-0--1--1--2--2--2--3--3-|
F#|-0--1--1--2--2--2--3--3-|
 B|-0--1--1--2--2--2--3--3-|
    *  *  *  *  *  *  *  *

Play Riff 4 x2

Solo
 B|------------------------------------12--14\\~-|
F#|-12--14b~---------12--14b~--------------------|
 E|----------------------------------------------|
 B|----------------------------------------------|
F#|----------------------------------------------|
 B|----------------------------------------------|

 B|-14h17-14h17-------------------------------------------------|
F#|-------------14\12-14-12-------------------------------------|
 E|-------------------------16-14-16-14-------------------------|
 B|-------------------------------------14\-12-14-9--10-7--9-5\-|
F#|-------------------------------------------------------------|
 B|-------------------------------------------------------------|

 B|-12--13--13--14--14--14--15--15-|
F#|--------------------------------|
 E|--------------------------------|
 B|--------------------------------|
F#|--------------------------------|
 B|--------------------------------|

 B|-17--19--19--21--21--21--21b23--21-|
F#|-----------------------------------|
 E|-----------------------------------|
 B|-----------------------------------|
F#|-----------------------------------|
 B|-----------------------------------|

 B|-21'--21b23'--19'--18'--18b'-|
F#|-----------------------------|
 E|-----------------------------|
 B|-----------------------------| ' = tremolo pick
F#|-----------------------------|     (listen to song for timing)
 B|-----------------------------|

Play Riff 3 x2   "Till death, I separate myself..."
                 (there's a rest at the end of the first time through
                  for the sick ass drum fill)
Play Riff 1 x2

Riff 1 ending alteration:
 B|-----------------------------------|
F#|-----------------------------------|
 E|--------10b--------10b-------------|
 B|--------x----------x-----5---5-----|
F#|--------8b---------8b--------------|
 B|-000000-----000000-----3---3---2b~-|
    ******     ******

Enjoy!!
Добавлено: 05.09.2013
Другие материалы по этой песне:
  • Аккорды и текст

Страница создана 05.09.2013
http://primanota.ru/sevendust/till-death-chords.htm
Привет, Гость.
Предлагаем пройти революционный курс по гитаре.
Подарок от PrimaNota.Ru, забирай!