PrimaNota.ru - самый крупный в мире бесплатный архив песенных текстов, аккордов, табулатур и нот


Sevendust - Slave The Prey - таба, видео

Регистрация Запомнить меня
Войти через:  Facebook Google Twitter Vk Yandex Mail.ru

Sevendust - Slave The Prey - таба, видео

Печатать
Просмотров: 72
Sevendust: Slave The Prey

Transcribed by: mysticguitar77

Facebook: https://www.facebook.com/MysticGuitar77
YouTube Channel: https://www.youtube.com/user/MysticGuitar77

Date last modified: October 12, 2015

Tuning: Modified Drop A# (A#,F,A#,D#,F,A#)

Riff 1
A#|------------------------------------------------------------------------------|
 F|------------------------------------------------------------------------------|
D#|-17---13-13---13/17-17-----13-13---13/17-17---13-13---13/17-17--------8-8-8-8-|
A#|-x----x--x----x--x--x------x--x----x--x--x----x--x----x--x--x---------7-7-7-7-|
 F|-15-0-11-11-0-11/15-15-0-0-11-11-0-11/15-15-0-11-11-0-11/15-15-0-0--0-6-6-6-6-|
A#|----0-------0----------0-0-------0----------0-------0----------0-0--0---------|

Play Riff 1 x4

Riff 2   "Right now..."
A#|-----------------------------------------------|
 F|-----------------------------------------------|
D#|-----------------------------------------------|
A#|-----------------------------------------------| x2
 F|-----------------------------------------------|
A#|-0-0--0--0--0-000--0--0--0-0-0--0--0--0-000--0-|
    * *  *  *  * ***  *  *  * * *  *  *  * ***  *

A#|---------|
 F|---------|
D#|-8-8-8-8-|
A#|-7-7-7-7-|
 F|-6-6-6-6-|
A#|---------|

Riff 3   "Write down..."
A#|--------------------------------------------------------------|
 F|--------------------------------------------------------------|
D#|--------------------------------------------------------------|
A#|-------------7-------------7-------------7--------------------|
 F|-5-------3/5---5-------3/5---5-------3/5---5------------------|
A#|---0--0----------0--0----------0--0----------0--0-5*-5*-5*-5*-|

A#|----------------------------------------------------------|
 F|----------------------------------------------------------|
D#|--------------------------------------------------8-8-8-8-|
A#|-------------7-------------7-------------7--------7-7-7-7-|
 F|-5-------3/5---5-------3/5---5-------3/5---5------6-6-6-6-|
A#|---0--0----------0--0----------0--0----------0--0---------|

Riff 4   "I've lived the life so long..."
A#|---------------------------------------------------------------------------------------|
 F|---------------------------------------------------------------------------------------|
D#|---------------------------------------------------------------------------------------|
A#|-1-1-1-1-1-1-1-1-1-1-1-1-1-1-1-1-1-1-1-1-1-1-1-1-1-1-1-1-1-1-x-1-1-1-1-1-1-1-1-1-1-1-1-|
 F|-x-x-x-x-x-x-x-x-x-x-x-x-x-x-x-x-x-x-x-x-x-x-x-x-x-x-x-x-x-x-x-x-x-x-x-x-x-x-x-x-x-x-x-|
A#|-1-1-1-1-1-1-1-1-1-1-1-1-1-1-1-1-1-1-1-1-1-1-1-1-1-1-1-1-1-1-x-1-1-1-1-1-1-1-1-1-1-1-1-|

A#|------------------------------------------------|
 F|------------------------------------------------|
D#|------------------------------------------------|
A#|-1-1-1/3-3-3-3/5-5-5-5-5-5-5-5/8-8-8-8/10-10-10-|
 F|-x-x-x-x-x-x-x-x-x-x-x-x-x-x-x-x-x-x-x-x--x--x--|
A#|-1-1-1/3-3-3-3/5-5-5-5-5-5-5-5/8-8-8-8/10-10-10-|

Riff 5   "Time to see it clearer now..."
A#|-------------------------------------------------------------|
 F|-------------------------------------------------------------|
D#|-5/7-------------5/7---7/8---5/7-----------------------------|
A#|-x-x---0----0----x-x---x-x---x-x---0----0--------------------|
 F|-3/5-0-0--0-0--0-3/5-0-5/6-0-3/5-0-0--0-0------------3-------|
A#|-----0-0--0-0--0-----0-----0-----0-0--0-0--0-3-5-3-0---5-3-0-|
        *    *    *     *     *     *    *

A#|------------------------------------------------------------------|
 F|------------------------------------------------------------------|
D#|-5/7-------------5/7---7/8---8/10---10/12---12/13-----------------|
A#|-x-x---0----0----x-x---x-x---x-x----x--x----x--x------------------|
 F|-3/5-0-0--0-0--0-3/5-0-5/6-0-6/8--0-8//10-0-10/11-------3---------|
A#|-----0-0--0-0--0-----0-----0------0-------0-------0-3-5---5-0-3b~-|
        *    *    *     *     *      *       *

A#|-------------------------------------------------------------|
 F|-------------------------------------------------------------|
D#|-------------------------------------------------------------|
A#|-5/7---0----0----5/7---7/8---5/7---0----0--------------------|
 F|-3/5-0-0--0-0--0-3/5-0-5/6-0-3/5-0-0--0-0------------3-------|
A#|-----0-0--0-0--0-----0-----0-----0-0--0-0--0-3-5-3-0---5-3-0-|
        *    *    *     *     *     *    *

A#|------------------------------------------------------------------|
 F|------------------------------------------------------------------|
D#|-----------------5/7---7/8---8/10---10/12---12/13-----------------|
A#|-5/7---0----0----x-x---x-x---x-x----x--x----x--x------------------|
 F|-3/5-0-0--0-0--0-3/5-0-5/6-0-6/8--0-8//10-0-10/11-------3---------|
A#|-----0-0--0-0--0-----0-----0------0-------0-------0-3-5---5-0-3b~-|
        *    *    *     *     *      *       *

Play Riff 1 x2
Play Riff 3 x2   "Step down..."

Riff 6   "I've lived the life so long..."
A#|-----------------------------------------------------------------------------------------------------|
 F|-----------------------------------------------------------------------------------------------------|
D#|-------------------------------7h8-7----7------------------------------------------------------------|
A#|-/5~--3h5-5/7~--5h7-7/8~--8h10-------10---10-8-0-/5~--3h5-5/7~--5h7-7/8~--8-8-8/10-10-10-10/12-12-12-|
 F|-----------------------------------------------------------------------------------------------------|
A#|-----------------------------------------------------------------------------------------------------|
                                        *    *  * *

Play Riff 5 x1   "Time to see it clearer now..."

Riff 7
A#|---------------------|
 F|---------------------|
D#|-------------------3-|
A#|-1-1--1--1--1-1-1--1-|
 F|-1-1--1--1--1-1-1--1-|
A#|-1-1--1--1--1-1-1--1-|
    * *  *  *  * * *

Play Riff 7 x4

Riff 8
A#|--------------------------------------------------------------------------------|
 F|-------------0------------0-------------0------------------------------0--------|
D#|-10---------------------------------------10\9-9-9\7-7-7-9/10-------------------|
A#|-x-------3h5---3------3h5---3-------3h5---x--x-x-x-x-x-x-x-x-------3h5---3------|
 F|-8----------------------------5~----------8\\7-7-7\5-5-5-7/8--------------------|
A#|----0--0---------0--0-------------0---------------------------0--0---------0--0-|

A#|-----------------------------------------------0------------------------|
 F|-----0--------------0--------------------------13------10-12-13-12------|
D#|----------------------10\9-9-9\7-7-7-9----------------------------------|
A#|-3h5---3--------3h5---x--x-x-x-x-x-x-x-x-x-x-x--------------------------|
 F|---------5~-----------8\\7-7-7\5-5-5-7-x-x-x-x--------------------------|
A#|-------------0-------------------------x-x-x-x----0--0-------------0--0-|

A#|---------------------------0--0--0--0--0--0--0--0--0--0-----------------------|
 F|-10-12-13-12------10-12-13-12h15-15/17-13-12-12-12-10-9------10-12-13-12------|
D#|------------------------------------------------------------------------------|
A#|------------------------------------------------------------------------------|
 F|------------------------------------------------------------------------------|
A#|-------------0--0---------------------------------------0--0-------------0--0-|

A#|---------------------------0--0--0--0--0--0--0--0--|
 F|-10-12-13-12------10-12-13-12h15-15-15-15/17-17-17-|
D#|---------------------------------------------------|
A#|---------------------------------------------------|
 F|---------------------------------------------------|
A#|-------------0--0----------------------------------|

Play Riff 5 x2   "Time to see it clearer now..."

Riff 9
A#|--------------------------------------------------------------------|
 F|--------------------------------------------------------------------|
D#|-17------------17------------17------------17------10\--------------|
A#|-x-------------x-------------x-------------x-------9\---------------|
 F|-15-0--0--0--0-15-0--0--0--0-15-0--0--0--0-15-0--0-8\---------------|
A#|----0--0--0--0----0--0--0--0----0--0--0--0----0--0-----2*2*2*2*2*2*-|
       *  *  *  *    *  *  *  *    *  *  *  *    *  *

A#|-----------------------------------------------------------|
 F|-----------------------------------------------------------|
D#|-17------------17------------17------------17------8-8-8-8-|
A#|-x-------------x-------------x-------------x-------7-7-7-7-|
 F|-15-0--0--0--0-15-0--0--0--0-15-0--0--0--0-15-0--0-6-6-6-6-|
A#|----0--0--0--0----0--0--0--0----0--0--0--0----0--0---------|
       *  *  *  *    *  *  *  *    *  *  *  *    *  *

Enjoy!!
Добавлено: 07.06.2016
Вам также может быть интересно:
Другие материалы по этой песне:
  • Аккорды и текст

Страница создана 07.06.2016
http://primanota.ru/sevendust/slave-prey-chords.htm
Привет, Гость.
Предлагаем пройти революционный курс по гитаре.
Подарок от PrimaNota.Ru, забирай!