PrimaNota.ru - самый крупный в мире бесплатный архив песенных текстов, аккордов, табулатур и нот


Sevendust - Silly Beast - таба, видео

Регистрация Запомнить меня
Войти через:  Facebook Google Twitter Vk Yandex Mail.ru

Sevendust - Silly Beast - таба, видео

Печатать
Просмотров: 103
Уроки эстрадного вокала в Санкт-Петербурге
Sevendust: Silly Beast

Transcribed by: mysticguitar77

Facebook: https://www.facebook.com/MysticGuitar77
YouTube Channel: https://www.youtube.com/user/MysticGuitar77

Date last modified: October 4, 2015

Tuning: Modified Drop A# (G,F,A#,D#,G,C) *6th string tuned down to G from A# normally

Riff 1
 C|----------------------------------------------|
 G|----------------------------------------------|
D#|-------7b-----7b---7/10-------7b-----7b---13b-|
A#|-------x------x----x-x--------x------x----x---|
 F|-------5b-----5b---5/8--------5b-----5b---11b-|
 G|-0-0-0----0-0----0------0-0-0----0-0----0-----|
    * * *    * *    *      * * *    * *    *

 C|---------------------------------------------|
 G|---------------------------------------------|
D#|-------7b-----7b---7/10-------7b-----7b---4b-|
A#|-------x------x----x-x--------x------x----x--|
 F|-------5b-----5b---5/8--------5b-----5b---2b-|
 G|-0-0-0----0-0----0------0-0-0----0-0----0----|
    * * *    * *    *      * * *    * *    *

Play Riff 1 x3

Riff 2
 C|----------------------------------------------|
 G|----------------------------------------------|
D#|-------14-----14---14/16-------14-----14---13-|
A#|-------x------x----x--x--------x------x----x--|
 F|-------12-----12---12/14-------12-----12---11-|
 G|-0-0-0----0-0----0-------0-0-0----0-0----0----|

Play Riff 2  x2

Riff 3
 C|-----------------------------|
 G|-----------------------------|
D#|-------7b-----------7----10b-|
A#|-------6b-----------6----x---|
 F|-------5b-----------5----8b--|
 G|-000-0----0-0-0-0-0----------|
    *** *    * * * * *

Riff 4   "So if my eyes are sewn..."
 C|-----------------------------------------------------------------------------------------------|
 G|-----------------------------------------------------------------------------------------------|
D#|-----------------------------------------------------------------------------------------------|
A#|-----------------------------------------------------------------------------------------------|
 F|-----------------------------------------------------------------------------------------------|
 G|-000-0-0-0-0-0-0-0-----0-0-000-0-0-0-0-1-0-0-0-0-0-1-0-0--0-0-0--0-0-100-0-0-0-0-1-0-0-1-0-1-3-|
    *** * * * * * * *     * * *** * * * * * * * * * * * * *  * * *  * * *** * * * * * * * * * * *

Play Riff 4 x2   "And if you think it's so wrong..."

Riff 5
 C|----------------------------------------------|
 G|----------------------------------------------|
D#|-12---12---12---14---11---11---11/12----------|
A#|-x----x----x----x----x----x----x--x-----7~-9\-|
 F|-10---10---10---12---9----9----9//10-10~------|
 G|----0----0----0----0----0----0----------------|

Riff 6   "Beneath this wonderful lie you mastered..."
 C|-------------------------------------------------|
 G|-------------------------------------------------|
D#|-12\---12\-------------12\-----------------------|
A#|-x-----x-----------9---x-----------9---------7h9-|
 F|-10\---10\---10h12-----10\---10h12---10-9h10-----|
 G|-----0-----0---------0-----0---------------------|

 C|---------------------------------------------------------------------|
 G|---------------------------------------------------------------------|
D#|-14\---14\--------------12/14-14-14-14/16-16-16-12\11-11-11-12\9-9-9-|
A#|-x-----x----------------x--x--x--x--x--x--x--x--x--x--x--x--x--x-x-x-|
 F|-12\---12\--------------10/12-12-12-12/14-14-14-10\9--9--9--10\7-7-7-|
 G|-----0-----0--0-0-0-0-0----------------------------------------------|

 C|-------------------------------------------------|
 G|-------------------------------------------------|
D#|-12\---12\-------------12\-----------------------|
A#|-x-----x-----------9---x-----------9---------7h9-|
 F|-10\---10\---10h12-----10\---10h12---10-9h10-----|
 G|-----0-----0---------0-----0---------------------|

 C|---------------------------------------------------------------------------------------------|
 G|---------------------------------------------------------------------------------------------|
D#|-14-14-14-14-14-14-14-14-14/16-16-16-16-16-15-15-15-15-15-15-11-11-11-11-12-12-12-12-9-9-9-9-|
A#|-x--x--x--x--x--x--x--x--x--x--x--x--x--x--x--x--x--x--x--x--x--x--x--x--x--x--x--x--x-x-x-x-|
 F|-12-12-12-12-12-12-12-12-12/14-14-14-14-14-13-13-13-13-13-13-9--9--9--9--10-10-10-10-7-7-7-7-|
 G|---------------------------------------------------------------------------------------------|

Play Riff 2 x2
Play Riff 3 x1
Play Riff 4 x2   "For all the seasons you have lost..."
Play Riff 5 x1
Play Riff 6 x2   "Beneath this wonderful lie you mastered..."

Riff 7
 C|----------------------------------------------------------------|
 G|-------------------------------------------------------------0~-|
D#|-7-----7-----7-----7-----7---7----------------------------------|
A#|-x-----x-----x-----x-----x---x-----7------7------7---------7~---|
 F|-5-----5-----5-----5-----5---5-----10-----10-----10-----10~-----|
 G|---0-0---0-0---0-0---0-0---0---0-0----0-0----0-0----0-0---------|
      * *   * *   * *   * *   *   * *    * *    * *    * *

Play Riff 7 x2

Solo rhythm
 C|---------------------------------------------------------------------------------|
 G|---------------------------------------------------------------------------------|
D#|---------------------------------------------------------------------------------|
A#|---------------------------------------------------------------------------------|
 F|-2-2-2-2-2-2-2-2-2-2-2-2-2-2-2-2-10-10-10-10-10-10-10-10-10-10-10-10-10-10-10-10-|
 G|-0-0-0-0-0-0-0-0-0-0-0-0-0-0-0-0-8--8--8--8--8--8--8--8--8--8--8--8--8--8--8--8--|

 C|-----------------------------------------------------------------------------------|
 G|-----------------------------------------------------------------------------------|
D#|-----------------------------------------------------------------------------------|
A#|-----------------------------------------------------------------------------------|
 F|-6-6-6-6-6-6-6-6-6-6-6-6-6-6-6-6-5-5-5-5-5-5-5-5-5-5-5-5-5-5-5-5-------------------|
 G|-4-4-4-4-4-4-4-4-4-4-4-4-4-4-4-4-3-3-3-3-3-3-3-3-3-3-3-3-3-3-3-3----0--0-12\-0-12\-|

 C|-------------------------------------------------------------------------------------------------|
 G|-------------------------------------------------------------------------------------------------|
D#|-------------------------------------------------------------------------------------------------|
A#|-------------------------------------------------------------------------------------------------|
 F|-10-10-10-10-10-10-10-10-10-10-10-10-10-10-10-10-13-13-13-13-13-13-13-13-13-13-13-13-13-13-13-13-|
 G|-8--8--8--8--8--8--8--8--8--8--8--8--8--8--8--8--11-11-11-11-11-11-11-11-11-11-11-11-11-11-11-11-|

 C|----------------------------------------------------------------------------------------------|
 G|----------------------------------------------------------------------------------------------|
D#|-------------------------------------------------------7b-----7b---7/10-------7b-----7b---13b-|
A#|-------------------------------------------------------x------x----x-x--------x------x----x---|
 F|-13-13-13-13-13-13-13-13-13-13-13-13-13-13-13-13-------5b-----5b---5/8--------5b-----5b---11b-|
 G|-11-11-11-11-11-11-11-11-11-11-11-11-11-11-11-11-0-0-0----0-0----0------0-0-0----0-0----0-----|
                                                    * * *    * *    *      * * *    * *    *

Play Riff 5 x1

Solo
 C|----------------------------------------------14b15~------------------0-------0-------|
 G|----12------12-------12--------8-----------12-------------15----15\14-----------------|
D#|-/9----9-------------------/11---11--/9-11------------/18----18---------16\14---14\12-|
A#|---------12----12-11----11------------------------------------------------------------|
 F|--------------------------------------------------------------------------------------|
 G|--------------------------------------------------------------------------------------|

 C|--------19----19-22-/24-19~--------15-------|
 G|-/17-19----------------------19h20----20-19-|
D#|-----------19-------------------------------|
A#|--------------------------------------------|
 F|--------------------------------------------|
 G|--------------------------------------------|

 C|-14p12-------15p12-------15p12-------18p15-------19p15-------19p15-------21p15-------21p15-------|
 G|-------14p12-------15p12-------15p12-------17p15-------17p15-------17p15-------17p15-------17p15-|
D#|-------------------------------------------------------------------------------------------------|
A#|-------------------------------------------------------------------------------------------------|
 F|-------------------------------------------------------------------------------------------------|
 G|-------------------------------------------------------------------------------------------------|

 C|-21b22-21~--15---------------------0~--------7*-|
 G|------------17b19~---------------8~----7*-------|
D#|-----------------------------/11~---------5*----|
A#|------------------------------------------------|
 F|------------------------------------------------|
 G|------------------------------------------------|

Play Riff 6 x2   "Beneath this wonderful lie you mastered..."

Riff 8
 C|-----------------------------------------------------------------------|
 G|-----------------------------------------------------------------------|
D#|-----------------------------------------------------------------------|
A#|-----------------------------------------------------------------------|
 F|-----------------------------------------------------------------------|
 G|-0-0-0---0-0>>>-0--0-0-0-0----0-0-0---0--0-0--0--0--0-0-0-0-0-0-0-0>>>-|
                * whammy pedal down an octave                          *

Enjoy!!


Добавлено: 07.06.2016
Другие материалы по этой песне:
  • Аккорды и текст

Страница создана 07.06.2016
http://primanota.ru/sevendust/silly-beast-chords.htm
Привет, Гость.
Предлагаем пройти революционный курс по гитаре.
Подарок от PrimaNota.Ru, забирай!