PrimaNota.ru - самый крупный в мире бесплатный архив песенных текстов, аккордов, табулатур и нот


Sevendust - Shine - текст песни, таба, бас-таба, видео

Регистрация Запомнить меня
Войти через:  Facebook Google Twitter Vk Yandex Mail.ru

Sevendust - Shine - текст песни, таба, бас-таба, видео

Печатать
Просмотров: 148
Band- Sevendust
Song- Shine

Tuning: B F# B E G# C#


  Intro with weird effect                 Repeat 4x

  ---------------------------------------------------|
  ---------------------------------------------------|
  --------------6-------4-4-------4-4----------------|
  -0-0-0-0-0-0----0-0-0-----0-0-0-----0-0-0----------|
  ---------------------------------------------------|
  ---------------------------------------------------|

 Guitar 2 eventually goes into this:

  -----------------------------------------------|
  -----------------------------------------------|
  --6-----------4-4---------4-4------------------|
  --x----0-0-0--x-x--0-0-0--x-x--0-0-0-----------|
  --4----0-0-0--2-2--0-0-0--2-2--0-0-0-----------|
  -------0-0-0-------0-0-0-------0-0-0-----------|
          PM          PM          PM

 Heavy Part / Verse

  --------------------------------------------------------|
  --------------------------------------------------------|
  ------------------6-----------4-4-----------4-4---------|
  0-0---0-0---0-0---x---0-0-0---x-x---0-0-0---x-x---0-0-0-|
  0-0---0-0---0-0---4---0-0-0---2-2---0-0-0---2-2---0-0-0-|
  0-0---0-0---0-0-------0-0-0---------0-0-0---------0-0-0-|
         PM               PM            PM            PM

 Pre Chorus

                Repeat 2x   then....

  ----------------------------------|-----------------------------------|
  ----------------------------------|-----------------------------------|
  ---13---11---10---11----14-14-14--|--14-14-14-14-14-14-14-14----------|
  ----x----x----x----x-----x--x--x--|---x--x--x--x--x--x--x--x----------|
  ---11----9----8----9----12-12-12--|--12-12-12-12-12-12-12-12----------|
  (0)---(0)--(0)--(0)--(0)----------|-----------------------------------|


 Chorus

  (strumming pattern isn't correct so improvise)

  -----------------------------------------------------------------|
  -----------------------------------------------------------------|
  9-9-9-9-9-9-9-9-9-9-9-11-11-11-11-11-11-11-11-11-11-11---6-6/8-8-|
  7-7-7-7-7-7-7-7-7-7-7--9--9--9--9--9--9--9--9--9--9--9---x-x/x-x-|
  7-7-7-7-7-7-7-7-7-7-7--9--9--9--9--9--9--9--9--9--9--9---4-4/6-6-|
  7-7-7-7-7-7-7-7-7-7-7--9--9--9--9--9--9--9--9--9--9--9-----------|

 Post chorus-Strumming pattern isn't correct here either


  -------------------------------------------------------|
  -------------------------------------------------------|
  11-11-11-11-11-11-11-11--10-10-10-10-10-10-10-10-10----|
  -x--x--x--x--x--x--x--x---x--x--x--x--x--x--x--x--x----|
  -9--9--9--9--9--9--9--9---8--8--8--8--8--8--8--8--8----|
  -------------------------------------------------------|

  -------------------------------------------------------|
  -------------------------------------------------------|
  11-11-11-11-11-11-11-11--13---11-11---10-10-10-\-6-6---|
  -x--x--x--x--x--x--x--x---x----x--x----x--x--x-\-x-x---|
  -9--9--9--9--9--9--9--9--11----9--9----8--8--8-\-4-4---|
  -------------------------------------------------------|

 Intro riff
 Verse
 Pre-Chorus
 Chorus
 Post-Chorus

 Then......

  ------------------------------------------------------|
  --------------------------------------------------9*--|
  --------------------------7*------------9*------9*----|
  ----------------------------9*------------------------|
  ------------------------------------------------------|
  0-0-0-0-0-0-0-0-0-0-0-0-0-------0-0-0-0----0-0--------|
                PM                   PM       PM

  -----------------------------------------------------|
  -----------------------------------------------------|
  --------------------------7*-----7*------------------|
  -----------------------------------9*----------------|
  -----------------------------------------------------|
  0-0-0-0-0-0-0-0-0-0-0-0-0----0-0---------------------|
              PM                PM

  --------------------|
  --------------------|
  --------------------|
  0^4--x-x-x-x--0^4---|
  0^2--x-x-x-x--0^2---|
  -----x-x-x-x--------|
      Repeat 4x

  ----------------------------|
  ----------------------------|
  ----------------------------|
  0-0---0-0---0-0-0---0-0-----|
  0-0---0-0---0-0-0---0-0-----|
  0-0---0-0---0-0-0---0-0-----|
         PM            PM


      Then....     2x

  ---------------------------------------------------------|
  ---------------------------------------------------------|
  ------------------------7*------------------------7*--9--|
  12/--------0-0---0-0------9*-9*--0-0----0-0---0-0---9*---|
  12/--------0-0---0-0-------------0-0----0-0---0-0--------|
  12/--------0-0---0-0-------------0-0----0-0---0-0--------|
                    PM              PM           PM

  Chorus
  Post-Chorus


  --------------------------------------------|
  --------------------------------------------|
  --------------------------------------------|
  0-0---0-0---0-0---0-0-----------12\---------|
  0-0---0-0---0-0---0-0-----------12\---------|
  0-0---0-0---0-0---0-0-----------12\---------|
         PM          PM

  ---------------------------------------------|
  ---------------------------------------------|
  -----------7*------------------------7*--9*--|
  -------------9*-9*---------------------9*----|       2x
  0-0---0-0----------0-0-0---0-0----0-0--------|
  0-0---0-0----------0-0-0---0-0----0-0--------|
         PM           PM             PM

  ------------------------------|
  ------------------------------|
  ------------------------------|
  0-0---0-0---0-0---------------|
  0-0---0-0---0-0---------------|
  0-0---0-0---0-0---------------|
         PM
Добавлено: 14.03.2012
Другие материалы по этой песне:

Страница создана 14.03.2012
http://primanota.ru/sevendust/shine-chords.htm
Привет, Гость.
Предлагаем пройти революционный курс по гитаре.
Подарок от PrimaNota.Ru, забирай!