PrimaNota.ru - самый крупный в мире бесплатный архив песенных текстов, аккордов, табулатур и нот


Sevendust - Prodigal Son - текст песни, таба, бас-таба, видео

Регистрация Запомнить меня
Войти через:  Facebook Google Twitter Vk Yandex Mail.ru

Sevendust - Prodigal Son - текст песни, таба, бас-таба, видео

Печатать
Просмотров: 126
Band: Sevendust
Song: Prodigal Son
TRANSCRIBED BY ISAIAS GARCIA (TexasFury)  



Rhythm # 1:


      PM PM            PM                PM PM            PM              
      S  S  E  S S S S S  S S S Q        S  S  E  S S S S S  S S S Q      
C#||----------------------------------|----------------------------------|
G#||----------------------------------|----------------------------------|
E ||----------------------------------|----------------------------------|
B ||--2----------------2--------------|--2----------------2--------------|
F#||----------------------------------|----------------------------------|
B ||--2--2--0--2-0-2-0-2--2-0-0-2~----|--2--2--0--2-0-2-0-2--2-0-0-2~----|


  PM               PM                PM PM              PM PM PM PM PM PM PM  
  S  S S S S S S S S  S S S Q        S  S  E  S S S S S S  S  S  S  S  S  S   
----------------------------------|------------------------------------------|
----------------------------------|------------------------------------------|
----------------------------------|------------------------------------------|
--2----------------2--------------|--2----------------2----------------------|
----------------------------------|------------------------------------------|
--2--2-0-0-2-0-2-0-2--2-0-0-2~----|--2--2--0--2-0-2-0---0--0--0--0--0--0--0--|


                                 PM PM PM PM PM PM PM PM             
  Q    Q    E  S  S Q       Q    S  S  S  S  S  S  S  S  S  S  S  S  
-------------------------|------------------------------------------|
-------------------------|------------------------------------------|
-------------------------|------------------------------------------|
--0----2-----------------|------------------------------------------|
--0----2----x--5h-7-5----|-------5--5--5--5--5--5--5--5--7p-5p-0h-5-|
--0----2----x------------|------------------------------------------|


                         PM PM         PM PM PM   PM PM PM PM PM PM  
  Q    Q    E  S  S S  S S  S     Q    S  E  S  S E  S  S  S  S  S   
-------------------------------|------------------------------------|
-------------------------------|------------------------------------|
-------------------------------|------------------------------------|
--0----2------------0h-2-------|------------------------------------|
--0----2----x------------------|------------------------------------|
--0----2----x--0h-2------0--0--|-------0--0--0----0--0--0--0--0--0--|


                                 PM PM PM PM PM PM PM PM             
  Q    Q    E  S  S Q       Q    S  S  S  S  S  S  S  S  S  S  S  S  
-------------------------|------------------------------------------|
-------------------------|------------------------------------------|
-------------------------|------------------------------------------|
--0----2-----------------|------------------------------------------|
--0----2----x-------5----|-------5--5--5--5--5--5--5--5--7p-5p-0h-5-|
--0----2----x--0h-2-0----|------------------------------------------|


                         PM PM         PM PM PM   PM PM PM PM PM PM  
  Q    Q    E  S  S S  S S  S     Q    S  E  S  S E  S  S  S  S  S   
-------------------------------|------------------------------------|
-------------------------------|------------------------------------|
-------------------------------|------------------------------------|
--0----2------------0h-2-------|------------------------------------|
--0----2----x------------------|------------------------------------|
--0----2----x--0h-2------0--0--|-------0--0--0----0--0--0--0--0--0--|


   S S S S S S S S S S S S Q        W                 
---------------------------------|-------------------|
---------------------------------|-------------------|
---------------------------------|-------------------|
---------------------------------|-------------------|
---------------------------------|-------------------|
--10-6-0-5-0-6-0-5-0-6-0-5-3~----|-------------------|


   S S S S S S S S S S S S Q        W                 
---------------------------------|-------------------|
---------------------------------|-------------------|
---------------------------------|-------------------|
---------------------------------|-------------------|
---------------------------------|-------------------|
--10-6-0-5-0-6-0-5-0-6-0-6-8~----|-------------------|


             PM PM                                         
  Q    E  E  S  S  E  S S S S    Q    Q    S S E  S S S S  
------------------------------|---------------------------|
--6----6--6-------------------|--------------8-8--8-8-8-8-|
--5----5--5-------------------|--------------7-7--7-7-7-7-|
--3----3--3--------9--9-9-9-9-|--8----8----x-5-5--5-5-5-5-|
--3----3--3--------9--9-9-9-9-|--8----8----x-5-5--5-5-5-5-|
--3----3--3--3--3--9--9-9-9-9-|--8----8----x-5-5--5-5-5-5-|


             PM PM                                            
  Q    E  E  S  S  E  S S S S     Q     Q     E   E   E   E   
------------------------------|------------------------------|
--6----6--6-------------------|--11----11----11--11--11--11--|
--5----5--5-------------------|--10----10----10--10--10--10--|
--3----3--3--------9--9-9-9-9-|---8-----8-----8---8---8---8--|
--3----3--3--------9--9-9-9-9-|---8-----8-----8---8---8---8--|
--3----3--3--3--3--9--9-9-9-9-|---8-----8-----8---8---8---8--|


             PM PM                                         
  Q    E  E  S  S  E  S S S S    Q    Q    S S E  S S S S  
------------------------------|---------------------------|
--6----6--6-------------------|--------------8-8--8-8-8-8-|
--5----5--5-------------------|--------------7-7--7-7-7-7-|
--3----3--3--------9--9-9-9-9-|--8----8----x-5-5--5-5-5-5-|
--3----3--3--------9--9-9-9-9-|--8----8----x-5-5--5-5-5-5-|
--3----3--3--3--3--9--9-9-9-9-|--8----8----x-5-5--5-5-5-5-|


             PM PM                                             
  Q    E  E  S  S  E  S S S S     Q     Q     S S S S S S S S  
------------------------------|-------------------------------|
--6----6--6-------------------|--11----11---------------------|
--5----5--5-------------------|--10----10---------------------|
--3----3--3--------9--9-9-9-9-|---8-----8---------------------|
--3----3--3--------9--9-9-9-9-|---8-----8---------------------|
--3----3--3--3--3--9--9-9-9-9-|---8-----8----10-6-0-5-0-6-5-0-|


  PM PM            PM                PM PM            PM              
  S  S  E  S S S S S  S S S Q        S  S  E  S S S S S  S S S Q      
----------------------------------|----------------------------------|
----------------------------------|----------------------------------|
----------------------------------|----------------------------------|
--2----------------2--------------|--2----------------2--------------|
----------------------------------|----------------------------------|
--2--2--0--2-0-2-0-2--2-0-0-2~----|--2--2--0--2-0-2-0-2--2-0-0-2~----|


  PM               PM                PM PM              PM PM PM PM PM PM PM  
  S  S S S S S S S S  S S S Q        S  S  E  S S S S S S  S  S  S  S  S  S   
----------------------------------|------------------------------------------|
----------------------------------|------------------------------------------|
----------------------------------|------------------------------------------|
--2----------------2--------------|--2----------------2----------------------|
----------------------------------|------------------------------------------|
--2--2-0-0-2-0-2-0-2--2-0-0-2~----|--2--2--0--2-0-2-0---0--0--0--0--0--0--0--|


                                 PM PM PM PM PM PM PM PM             
  Q    Q    E  S  S Q       Q    S  S  S  S  S  S  S  S  S  S  S  S  
-------------------------|------------------------------------------|
-------------------------|------------------------------------------|
-------------------------|------------------------------------------|
--0----2-----------------|------------------------------------------|
--0----2----x--5h-7-5----|-------5--5--5--5--5--5--5--5--7p-5p-0h-5-|
--0----2----x------------|------------------------------------------|


                         PM PM         PM PM PM   PM PM PM PM PM PM  
  Q    Q    E  S  S S  S S  S     Q    S  E  S  S E  S  S  S  S  S   
-------------------------------|------------------------------------|
-------------------------------|------------------------------------|
-------------------------------|------------------------------------|
--0----2------------0h-2-------|------------------------------------|
--0----2----x------------------|------------------------------------|
--0----2----x--0h-2------0--0--|-------0--0--0----0--0--0--0--0--0--|


                                 PM PM PM PM PM PM PM PM             
  Q    Q    E  S  S Q       Q    S  S  S  S  S  S  S  S  S  S  S  S  
-------------------------|------------------------------------------|
-------------------------|------------------------------------------|
-------------------------|------------------------------------------|
--0----2-----------------|------------------------------------------|
--0----2----x-------5----|-------5--5--5--5--5--5--5--5--7p-5p-0h-5-|
--0----2----x--0h-2-0----|------------------------------------------|


                         PM PM         PM PM PM   PM PM PM PM PM PM PM  
  Q    Q    E  S  S S  S S  S     Q    S  E  S  S E  T  T  S  S  S  S   
-------------------------------|---------------------------------------|
-------------------------------|---------------------------------------|
-------------------------------|---------------------------------------|
--0----2------------0h-2-------|---------------------------------------|
--0----2----x------------------|---------------------------------------|
--0----2----x--0h-2------0--0--|-------0--0--0----0--0--0--0--0--0--0--|


   S S S S S S S S S S S S Q        W                 
---------------------------------|-------------------|
---------------------------------|-------------------|
---------------------------------|-------------------|
---------------------------------|-------------------|
---------------------------------|-------------------|
--10-6-0-5-0-6-0-5-0-6-0-5-3~----|-------------------|


                                                  ^ v ^ v  
   S S S S S S S S S S S S Q        H        Q    S S S S  
---------------------------------|------------------------|
---------------------------------|----------------x-x-x-x-|
---------------------------------|----------------x-x-x-x-|
---------------------------------|----------------x-x-x-x-|
---------------------------------|------------------------|
--10-6-0-5-0-6-0-5-0-6-0-6-8~----|------------------------|


             PM PM                                         
  Q    E  E  S  S  E  S S S S    Q    Q    S S E  S S S S  
------------------------------|---------------------------|
--6----6--6-------------------|--------------8-8--8-8-8-8-|
--5----5--5-------------------|--------------7-7--7-7-7-7-|
--3----3--3--------9--9-9-9-9-|--8----8----x-5-5--5-5-5-5-|
--3----3--3--------9--9-9-9-9-|--8----8----x-5-5--5-5-5-5-|
--3----3--3--3--3--9--9-9-9-9-|--8----8----x-5-5--5-5-5-5-|


             PM PM                                            
  Q    E  E  S  S  E  S S S S     Q     Q     E   E   E   E   
------------------------------|------------------------------|
--6----6--6-------------------|--11----11----11--11--11--11--|
--5----5--5-------------------|--10----10----10--10--10--10--|
--3----3--3--------9--9-9-9-9-|---8-----8-----8---8---8---8--|
--3----3--3--------9--9-9-9-9-|---8-----8-----8---8---8---8--|
--3----3--3--3--3--9--9-9-9-9-|---8-----8-----8---8---8---8--|


             PM PM                                         
  Q    E  E  S  S  E  S S S S    Q    Q    S S E  S S S S  
------------------------------|---------------------------|
--6----6--6-------------------|--------------8-8--8-8-8-8-|
--5----5--5-------------------|--------------7-7--7-7-7-7-|
--3----3--3--------9--9-9-9-9-|--8----8----x-5-5--5-5-5-5-|
--3----3--3--------9--9-9-9-9-|--8----8----x-5-5--5-5-5-5-|
--3----3--3--3--3--9--9-9-9-9-|--8----8----x-5-5--5-5-5-5-|


             PM PM                                              
  Q    E  E  S  S  E  S S S S     Q     E.   S  S  S  E   Q     
------------------------------|--------------------------------|
--6----6--6-------------------|--11----11---11-11-11-11--11----|
--5----5--5-------------------|--10----10---10-10-10-10--10----|
--3----3--3--------9--9-9-9-9-|---8-----8----8--8--8--8---8----|
--3----3--3--------9--9-9-9-9-|---8-----8----8--8--8--8---8----|
--3----3--3--3--3--9--9-9-9-9-|---8-----8----8--8--8--8---8----|


   S S S S S S  S S S S S S  S S S S     S S S S S S  S S S S S S  S S S S  
-------------------------------------|-------------------------------------|
-------------------------------------|-------------------------------------|
-------------------------------------|-------------------------------------|
-------------------------------------|-------------------------------------|
-------------------------------------|-------------------------------------|
--10-6-0-5-0-6-10-6-0-5-0-6-10-6-5-3-|--10-6-0-5-0-6-10-6-0-5-0-6-10-6-5-3-|


                                                                       PM PM  
   S S S S S S  S S S S S S  S S S S     S S S S S S  S S S S S S  S S S  S   
-------------------------------------|---------------------------------------|
-------------------------------------|---------------------------------------|
-------------------------------------|---------------------------------------|
-------------------------------------|---------------------------------------|
-------------------------------------|---------------------------------5--5--|
--10-6-0-5-0-6-10-6-0-5-0-6-10-6-5-3-|--10-6-0-5-0-6-10-6-0-5-0-6-10-6-5--3--|


  PM PM PM PM   PM PM   PM   PM PM PM   PM  
  S  S  S  S  S E  S  S S  S S  S  S  S S   
-------------------------------------------|
-------------------------------------------|
-------------------------------------------|
-------------------------------------------|
--2--2--2--2----2--2----2----2--2--2----0--|
--2--2--2--2----2--2----2----2--2--2----0--|


  PM PM PM PM   PM PM   PM   PM PM      
  S  S  S  S  S E  S  S S  S S  S  E.   
---------------------------------------|
---------------------------------------|
---------------------------------------|
---------------------------------------|
--2--2--2--2----2--2----2----2--2--0---|
--2--2--2--2----2--2----2----2--2--0---|


  PM PM PM PM   PM PM   PM   PM PM PM   PM  
  S  S  S  S  S E  S  S S  S S  S  S  S S   
-------------------------------------------|
-------------------------------------------|
-------------------------------------------|
-------------------------------------------|
--2--2--2--2----2--2----2----2--2--2----0--|
--2--2--2--2----2--2----2----2--2--2----0--|


  PM PM PM PM   PM PM   PM   PM PM                          
  S  S  S  S  S E  S  S S  S S  S  E.     W                 
---------------------------------------|-------------------|
---------------------------------------|-------------------|
---------------------------------------|-------------------|
---------------------------------------|-------------------|
--2--2--2--2----2--2----2----2--2--0---|-------------------|
--2--2--2--2----2--2----2----2--2--0---|-------------------|


       PM   PM   PM   PM   PM PM                            
   S S S  S S  S S  S S  S S  S  Q        W                 
---------------------------------------|-------------------|
---------------------------------------|-------------------|
---------------------------------------|-------------------|
---------------------------------------|-------------------|
---------------------------------------|-------------------|
--10-6-0--5-0--6-0--5-0--6-0--5--3~----|-------------------|


             PM PM                                         
  Q    E  E  S  S  E  S S S S    Q    Q    S S E  S S S S  
------------------------------|---------------------------|
--6----6--6-------------------|--------------8-8--8-8-8-8-|
--5----5--5-------------------|--------------7-7--7-7-7-7-|
--3----3--3--------9--9-9-9-9-|--8----8----x-5-5--5-5-5-5-|
--3----3--3--------9--9-9-9-9-|--8----8----x-5-5--5-5-5-5-|
--3----3--3--3--3--9--9-9-9-9-|--8----8----x-5-5--5-5-5-5-|


             PM PM                                            
  Q    E  E  S  S  E  S S S S     Q     Q     E   E   E   E   
------------------------------|------------------------------|
--6----6--6-------------------|--11----11----11--11--11--11--|
--5----5--5-------------------|--10----10----10--10--10--10--|
--3----3--3--------9--9-9-9-9-|---8-----8-----8---8---8---8--|
--3----3--3--------9--9-9-9-9-|---8-----8-----8---8---8---8--|
--3----3--3--3--3--9--9-9-9-9-|---8-----8-----8---8---8---8--|


             PM PM                                         
  Q    E  E  S  S  E  S S S S    Q    Q    S S E  S S S S  
--3----3--3-------------------|---------------------------|
--6----6--6-------------------|--------------8-8--8-8-8-8-|
--5----5--5-------------------|--------------7-7--7-7-7-7-|
--3----3--3--------9--9-9-9-9-|--8----8----x-5-5--5-5-5-5-|
--3----3--3--------9--9-9-9-9-|--8----8----x-5-5--5-5-5-5-|
--3----3--3--3--3--9--9-9-9-9-|--8----8----x-5-5--5-5-5-5-|


                        PM                                            
   E   E      E   E   S S  E  S S S S     Q     Q     E   E   E   E   
--------------------------------------|------------------------------|
--------------------------------------|--11----11----11--11--11--11--|
--10--12--12g14--12---L---------------|--10----10----10--10--10--10--|
------------------------9--9--9-9-9-9-|---8-----8-----8---8---8---8--|
---8--10--10g12--10---L-9--9--9-9-9-9-|---8-----8-----8---8---8---8--|
------------------------9--9--9-9-9-9-|---8-----8-----8---8---8---8--|


             PM PM                                         
  Q    E  E  S  S  E  S S S S    Q    Q    S S E  S S S S  
------------------------------|---------------------------|
--6----6--6-------------------|--------------8-8--8-8-8-8-|
--5----5--5-------------------|--------------7-7--7-7-7-7-|
--3----3--3--------9--9-9-9-9-|--8----8----x-5-5--5-5-5-5-|
--3----3--3--------9--9-9-9-9-|--8----8----x-5-5--5-5-5-5-|
--3----3--3--3--3--9--9-9-9-9-|--8----8----x-5-5--5-5-5-5-|


             PM PM                                             
  Q    E  E  S  S  E  S S S S     Q     Q     S S S S S S S S  
------------------------------|-------------------------------|
--6----6--6-------------------|--11----11---------------------|
--5----5--5-------------------|--10----10---------------------|
--3----3--3--------9--9-9-9-9-|---8-----8---------------------|
--3----3--3--------9--9-9-9-9-|---8-----8---------------------|
--3----3--3--3--3--9--9-9-9-9-|---8-----8----10-6-0-5-0-6-5-0-|


             PM PM                                         
  Q    E  E  S  S  E  S S S S    Q    Q    S S E  S S S S  
------------------------------|---------------------------|
--6----6--6-------------------|--------------8-8--8-8-8-8-|
--5----5--5-------------------|--------------7-7--7-7-7-7-|
--3----3--3--------9--9-9-9-9-|--8----8----x-5-5--5-5-5-5-|
--3----3--3--------9--9-9-9-9-|--8----8----x-5-5--5-5-5-5-|
--3----3--3--3--3--9--9-9-9-9-|--8----8----x-5-5--5-5-5-5-|


             PM PM                                                       
  Q    E  E  S  S  E  S S S S     W                    W                 
------------------------------|--------------------|--------------------|
--6----6--6-------------------|--11----------------|---L----------------|
--5----5--5-------------------|--10----------------|---L----------------|
--3----3--3--------9--9-9-9-9-|---8----------------|---L----------------|
--3----3--3--------9--9-9-9-9-|---8----------------|---L----------------|
--3----3--3--3--3--9--9-9-9-9-|---8----------------|---L----------------|


                             
   S                                       S S S S S S S S S S S Q      
-----------------------------------------------------------------------|
-----------------------------------------------------------------------|
-----------------------------------------------------------------------|
-----------------------------------------------------------------------|
-----------------------------------------------------------------------|
--10---------------------------------------6-0-5-0-6-0-5-0-6-0-5-3~----|


  W                  
-------------------||
-------------------||
-------------------||
-------------------||
-------------------||
-------------------||










Rhythm # 2:


      PM PM            PM                PM PM            PM              
      S  S  E  S S S S S  S S S Q        S  S  E  S S S S S  S S S Q      
C#||----------------------------------|----------------------------------|
G#||----------------------------------|----------------------------------|
E ||--4----------------4--------------|--4----------------4--------------|
B ||--2----------------2--------------|--2----------------2--------------|
F#||----------------------------------|----------------------------------|
B ||--2--2--0--2-0-2-0-2--2-0-0-2~----|--2--2--0--2-0-2-0-2--2-0-0-2~----|


  PM               PM                PM PM              PM PM PM PM PM PM PM  
  S  S S S S S S S S  S S S Q        S  S  E  S S S S S S  S  S  S  S  S  S   
----------------------------------|------------------------------------------|
----------------------------------|------------------------------------------|
--4----------------4--------------|--4----------------4----------------------|
--2----------------2--------------|--2----------------2----------------------|
----------------------------------|------------------------------------------|
--2--2-0-0-2-0-2-0-2--2-0-0-2~----|--2--2--0--2-0-2-0---0--0--0--0--0--0--0--|


                                 PM PM PM PM PM PM PM PM             
  Q    Q    E  S  S Q       Q    S  S  S  S  S  S  S  S  S  S  S  S  
-------------------------|------------------------------------------|
-------------------------|------------------------------------------|
-------------------------|------------------------------------------|
--0----2-----------------|------------------------------------------|
--0----2----x--5h-7-5----|-------5--5--5--5--5--5--5--5--7p-5p-0h-5-|
--0----2----x------------|------------------------------------------|


                         PM PM         PM PM PM   PM PM PM PM PM PM  
  Q    Q    E  S  S S  S S  S     Q    S  E  S  S E  S  S  S  S  S   
-------------------------------|------------------------------------|
-------------------------------|------------------------------------|
-------------------------------|------------------------------------|
--0----2------------0h-2-------|------------------------------------|
--0----2----x------------------|------------------------------------|
--0----2----x--0h-2------0--0--|-------0--0--0----0--0--0--0--0--0--|


                                 PM PM PM PM PM PM PM PM             
  Q    Q    E  S  S Q       Q    S  S  S  S  S  S  S  S  S  S  S  S  
-------------------------|------------------------------------------|
-------------------------|------------------------------------------|
-------------------------|------------------------------------------|
--0----2-----------------|------------------------------------------|
--0----2----x-------5----|-------5--5--5--5--5--5--5--5--7p-5p-0h-5-|
--0----2----x--0h-2-0----|------------------------------------------|


                         PM PM         PM PM PM   PM PM PM PM PM PM  
  Q    Q    E  S  S S  S S  S     Q    S  E  S  S E  S  S  S  S  S   
-------------------------------|------------------------------------|
-------------------------------|------------------------------------|
-------------------------------|------------------------------------|
--0----2------------0h-2-------|------------------------------------|
--0----2----x------------------|------------------------------------|
--0----2----x--0h-2------0--0--|-------0--0--0----0--0--0--0--0--0--|


   S S S S S S S S S S S S Q        W                 
---------------------------------|-------------------|
---------------------------------|-------------------|
---------------------------------|-------------------|
---------------------------------|-------------------|
---------------------------------|-------------------|
--10-6-0-5-0-6-0-5-0-6-0-5-3~----|-------------------|


   S S S S S S S S S S S S Q        W                 
---------------------------------|-------------------|
---------------------------------|-------------------|
---------------------------------|-------------------|
---------------------------------|-------------------|
---------------------------------|-------------------|
--10-6-0-5-0-6-0-5-0-6-0-6-8~----|-------------------|


   E   E   E   E   E   E   E   E      E   E   E   E   S S E  Q     
----------------------------------|-------------------------------|
----------------------------------|---------------------8-8--8----|
--10--10--10--10--10--10--10--10--|--10--10--10--10--10-7-7--7----|
----------------------------------|---------------------5-5--5----|
---8---8---8---8---8---8---8---8--|---8---8---8---8---8-5-5--5----|
----------------------------------|---------------------5-5--5----|


   E   E   E   E   E   E   E   E      E   E   E   E   E   E   E   E   
----------------------------------|----------------------------------|
----------------------------------|----------------------------------|
--10--10--10--10--10--10--10--10--|--10--10--10--10--10--10--10--10--|
----------------------------------|----------------------------------|
---8---8---8---8---8---8---8---8--|---8---8---8---8---8---8---8---8--|
----------------------------------|----------------------------------|


                                                             PM       
   E   E   E   E   E   E   E   E      E   E   E   E   S S E  S  S E   
----------------------------------|----------------------------------|
----------------------------------|---------------------8-8--8--8-8--|
--10--10--10--10--10--10--10--10--|--10--10--10--10--10-7-7--7--7-7--|
----------------------------------|---------------------5-5--5--5-5--|
---8---8---8---8---8---8---8---8--|---8---8---8---8---8-5-5--5--5-5--|
----------------------------------|---------------------5-5--5--5-5--|


   E   E   E   E   E   E   E   E      E   E   E   E   S S S S S S S S  
----------------------------------|-----------------------------------|
----------------------------------|-----------------------------------|
--10--10--10--10--10--10--10--10--|--10--10--10--10-------------------|
----------------------------------|-----------------------------------|
---8---8---8---8---8---8---8---8--|---8---8---8---8-------------------|
----------------------------------|------------------10-6-0-5-0-6-5-0-|


  PM PM            PM                PM PM            PM              
  S  S  E  S S S S S  S S S Q        S  S  E  S S S S S  S S S Q      
----------------------------------|----------------------------------|
----------------------------------|----------------------------------|
----------------------------------|----------------------------------|
----------------------------------|----------------------------------|
----------------------------------|----------------------------------|
--2--2--0--2-0-2-0-2--2-0-0-2~----|--2--2--0--2-0-2-0-2--2-0-0-2~----|


  PM               PM                PM PM              PM PM PM PM PM PM PM  
  S  S S S S S S S S  S S S Q        S  S  E  S S S S S S  S  S  S  S  S  S   
----------------------------------|------------------------------------------|
----------------------------------|------------------------------------------|
----------------------------------|------------------------------------------|
----------------------------------|-------------------2----------------------|
----------------------------------|------------------------------------------|
--2--2-0-0-2-0-2-0-2--2-0-0-2~----|--2--2--0--2-0-2-0---0--0--0--0--0--0--0--|


                                 PM PM PM PM PM PM PM PM             
  Q    Q    E  S  S Q       Q    S  S  S  S  S  S  S  S  S  S  S  S  
-------------------------|------------------------------------------|
-------------------------|------------------------------------------|
-------------------------|------------------------------------------|
--0----2-----------------|------------------------------------------|
--0----2----x--5h-7-5----|-------5--5--5--5--5--5--5--5--7p-5p-0h-5-|
--0----2----x------------|------------------------------------------|


                         PM PM         PM PM PM   PM PM PM PM PM PM  
  Q    Q    E  S  S S  S S  S     Q    S  E  S  S E  S  S  S  S  S   
-------------------------------|------------------------------------|
-------------------------------|------------------------------------|
-------------------------------|------------------------------------|
--0----2------------0h-2-------|------------------------------------|
--0----2----x------------------|------------------------------------|
--0----2----x--0h-2------0--0--|-------0--0--0----0--0--0--0--0--0--|


                                 PM PM PM PM PM PM PM PM             
  Q    Q    E  S  S Q       Q    S  S  S  S  S  S  S  S  S  S  S  S  
-------------------------|------------------------------------------|
-------------------------|------------------------------------------|
-------------------------|------------------------------------------|
--0----2-----------------|------------------------------------------|
--0----2----x-------5----|-------5--5--5--5--5--5--5--5--7p-5p-0h-5-|
--0----2----x--0h-2-0----|------------------------------------------|


                         PM PM         PM PM PM   PM PM PM PM PM PM PM  
  Q    Q    E  S  S S  S S  S     Q    S  E  S  S E  T  T  S  S  S  S   
-------------------------------|---------------------------------------|
-------------------------------|---------------------------------------|
-------------------------------|---------------------------------------|
--0----2------------0h-2-------|---------------------------------------|
--0----2----x------------------|---------------------------------------|
--0----2----x--0h-2------0--0--|-------0--0--0----0--0--0--0--0--0--0--|


   S S S S S S S S S S S S Q        W                 
---------------------------------|-------------------|
---------------------------------|-------------------|
---------------------------------|-------------------|
---------------------------------|-------------------|
---------------------------------|-------------------|
--10-6-0-5-0-6-0-5-0-6-0-5-3~----|-------------------|


   S S S S S S S S S S S S Q        W                 
---------------------------------|-------------------|
---------------------------------|-------------------|
---------------------------------|-------------------|
---------------------------------|-------------------|
---------------------------------|-------------------|
--10-6-0-5-0-6-0-5-0-6-0-6-8~----|-------------------|


   E   E   E   E   E   E   E   E      E   E   E   E   S S E  Q     
----------------------------------|-------------------------------|
----------------------------------|---------------------8-8--8----|
--10--10--10--10--10--10--10--10--|--10--10--10--10--10-7-7--7----|
----------------------------------|---------------------5-5--5----|
---8---8---8---8---8---8---8---8--|---8---8---8---8---8-5-5--5----|
----------------------------------|---------------------5-5--5----|


   E   E   E   E   E   E   E   E      E   E   E   E   E   E   E   E   
----------------------------------|----------------------------------|
----------------------------------|----------------------------------|
--10--10--10--10--10--10--10--10--|--10--10--10--10--10--10--10--10--|
----------------------------------|----------------------------------|
---8---8---8---8---8---8---8---8--|---8---8---8---8---8---8---8---8--|
----------------------------------|----------------------------------|


                                                             PM       
   E   E   E   E   E   E   E   E      E   E   E   E   S S E  S  S E   
----------------------------------|----------------------------------|
----------------------------------|---------------------8-8--8--8-8--|
--10--10--10--10--10--10--10--10--|--10--10--10--10--10-7-7--7--7-7--|
----------------------------------|---------------------5-5--5--5-5--|
---8---8---8---8---8---8---8---8--|---8---8---8---8---8-5-5--5--5-5--|
----------------------------------|---------------------5-5--5--5-5--|


   E   E   E   E   E   E   E   E      E   E   E   E   E   E   E   E   
----------------------------------|----------------------------------|
----------------------------------|----------------------------------|
--10--10--10--10--10--10--10--10--|--10--10--10--10--10--10--10--10--|
----------------------------------|----------------------------------|
---8---8---8---8---8---8---8---8--|---8---8---8---8---8---8---8---8--|
----------------------------------|----------------------------------|


   S S S S S S  S S S S S S  S S S S     S S S S S S  S S S S S S  S S S S  
-------------------------------------|-------------------------------------|
-------------------------------------|-------------------------------------|
-------------------------------------|-------------------------------------|
-------------------------------------|-------------------------------------|
-------------------------------------|-------------------------------------|
--10-6-0-5-0-6-10-6-0-5-0-6-10-6-5-3-|--10-6-0-5-0-6-10-6-0-5-0-6-10-6-5-3-|


                                                                       PM PM  
   S S S S S S  S S S S S S  S S S S     S S S S S S  S S S S S S  S S S  S   
-------------------------------------|---------------------------------------|
-------------------------------------|---------------------------------------|
-------------------------------------|---------------------------------------|
-------------------------------------|---------------------------------------|
-------------------------------------|---------------------------------5--5--|
--10-6-0-5-0-6-10-6-0-5-0-6-10-6-5-3-|--10-6-0-5-0-6-10-6-0-5-0-6-10-6-5--3--|


  PM PM PM PM   PM PM   PM   PM PM PM   PM  
  S  S  S  S  S E  S  S S  S S  S  S  S S   
-------------------------------------------|
-------------------------------------------|
-------------------------------------------|
-------------------------------------------|
--2--2--2--2----2--2----2----2--2--2----0--|
--2--2--2--2----2--2----2----2--2--2----0--|


  PM PM PM PM   PM PM   PM   PM PM      
  S  S  S  S  S E  S  S S  S S  S  E.   
---------------------------------------|
---------------------------------------|
---------------------------------------|
---------------------------------------|
--2--2--2--2----2--2----2----2--2--0---|
--2--2--2--2----2--2----2----2--2--0---|


  PM PM PM PM   PM PM   PM   PM PM PM   PM  
  S  S  S  S  S E  S  S S  S S  S  S  S S   
-------------------------------------------|
-------------------------------------------|
-------------------------------------------|
-------------------------------------------|
--2--2--2--2----2--2----2----2--2--2----0--|
--2--2--2--2----2--2----2----2--2--2----0--|


  PM PM PM PM   PM PM   PM   PM PM                          
  S  S  S  S  S E  S  S S  S S  S  E.     W                 
---------------------------------------|-------------------|
---------------------------------------|-------------------|
---------------------------------------|-------------------|
---------------------------------------|-------------------|
--2--2--2--2----2--2----2----2--2--0---|-------------------|
--2--2--2--2----2--2----2----2--2--0---|-------------------|


   S S S S S S S S S S S S Q        W                 
---------------------------------|-------------------|
---------------------------------|-------------------|
---------------------------------|-------------------|
---------------------------------|-------------------|
---------------------------------|-------------------|
--10-6-0-5-0-6-0-5-0-6-0-5-3~----|-------------------|


   E   E   E   E   E   E   E   E      E   E   E   E   S S E  Q     
----------------------------------|-------------------------------|
----------------------------------|---------------------8-8--8----|
--10--10--10--10--10--10--10--10--|--10--10--10--10--10-7-7--7----|
----------------------------------|---------------------5-5--5----|
---8---8---8---8---8---8---8---8--|---8---8---8---8---8-5-5--5----|
----------------------------------|---------------------5-5--5----|


   E   E   E   E   E   E   E   E      E   E   E   E   E   E   E   E   
----------------------------------|----------------------------------|
----------------------------------|----------------------------------|
--10--10--10--10--10--10--10--10--|--10--10--10--10--10--10--10--10--|
----------------------------------|----------------------------------|
---8---8---8---8---8---8---8---8--|---8---8---8---8---8---8---8---8--|
----------------------------------|----------------------------------|


   E   E   E   E   E   E   E   E      E   E   E   E   S S E  Q     
----------------------------------|-------------------------------|
----------------------------------|---------------------8-8--8----|
--10--10--10--10--10--10--10--10--|--10--10--10--10--10-7-7--7----|
----------------------------------|---------------------5-5--5----|
---8---8---8---8---8---8---8---8--|---8---8---8---8---8-5-5--5----|
----------------------------------|---------------------5-5--5----|


   E   E   E   E   E   E   E   E      E   E   E   E   E   E   E   E   
----------------------------------|----------------------------------|
----------------------------------|----------------------------------|
--10--10--10--10--10--10--10--10--|--10--10--10--10--10--10--10--10--|
----------------------------------|----------------------------------|
---8---8---8---8---8---8---8---8--|---8---8---8---8---8---8---8---8--|
----------------------------------|----------------------------------|


   E   E   E   E   E   E   E   E      E   E   E   E   S S E  Q     
----------------------------------|-------------------------------|
----------------------------------|---------------------8-8--8----|
--10--10--10--10--10--10--10--10--|--10--10--10--10--10-7-7--7----|
----------------------------------|---------------------5-5--5----|
---8---8---8---8---8---8---8---8--|---8---8---8---8---8-5-5--5----|
----------------------------------|---------------------5-5--5----|


   E   E   E   E   E   E   E   E      E   E   E   E   S S S S S S S S  
----------------------------------|-----------------------------------|
----------------------------------|-----------------------------------|
--10--10--10--10--10--10--10--10--|--10--10--10--10-------------------|
----------------------------------|-----------------------------------|
---8---8---8---8---8---8---8---8--|---8---8---8---8-------------------|
----------------------------------|------------------10-6-0-5-0-6-5-0-|


   E   E   E   E   E   E   E   E      E   E   E   E   S S E  Q     
----------------------------------|-------------------------------|
----------------------------------|---------------------8-8--8----|
--10--10--10--10--10--10--10--10--|--10--10--10--10--10-7-7--7----|
----------------------------------|---------------------5-5--5----|
---8---8---8---8---8---8---8---8--|---8---8---8---8---8-5-5--5----|
----------------------------------|---------------------5-5--5----|


   E   E   E   E   E   E   E   E      W                    W                 
----------------------------------|--------------------|--------------------|
----------------------------------|--------------------|--------------------|
--10--10--10--10--10--10--10--10--|--10----------------|---L----------------|
----------------------------------|---8----------------|---L----------------|
---8---8---8---8---8---8---8---8--|---8----------------|---L----------------|
----------------------------------|--------------------|--------------------|


                                       
   S S S S S S S S S S S S Q        W                                          
---------------------------------|-------------------------------------------||
---------------------------------|-------------------------------------------||
---------------------------------|-------------------------------------------||
---------------------------------|-------------------------------------------||
---------------------------------|-------------------------------------------||
--10-6-0-5-0-6-0-5-0-6-0-5-3~----|-------------------------------------------||










Lead # 1:


      W                   W                   W                 
C#||-------------------|-------------------|-------------------|
G#||-------------------|-------------------|-------------------|
E ||-------------------|-------------------|-------------------|
B ||-------------------|-------------------|-------------------|
F#||-------------------|-------------------|-------------------|
B ||-------------------|-------------------|-------------------|


  W                   W                   W                   W                 
-------------------|-------------------|-------------------|-------------------|
-------------------|-------------------|-------------------|-------------------|
-------------------|-------------------|-------------------|-------------------|
-------------------|-------------------|-------------------|-------------------|
-------------------|-------------------|-------------------|-------------------|
-------------------|-------------------|-------------------|-------------------|


  W                   W                   W                   W                 
-------------------|-------------------|-------------------|-------------------|
-------------------|-------------------|-------------------|-------------------|
-------------------|-------------------|-------------------|-------------------|
-------------------|-------------------|-------------------|-------------------|
-------------------|-------------------|-------------------|-------------------|
-------------------|-------------------|-------------------|-------------------|


  W                   W                   W                   W                 
-------------------|-------------------|-------------------|-------------------|
-------------------|-------------------|-------------------|-------------------|
-------------------|-------------------|-------------------|-------------------|
-------------------|-------------------|-------------------|-------------------|
-------------------|-------------------|-------------------|-------------------|
-------------------|-------------------|-------------------|-------------------|


  W                   W                   W                   W                 
-------------------|-------------------|-------------------|-------------------|
-------------------|-------------------|-------------------|-------------------|
-------------------|-------------------|-------------------|-------------------|
-------------------|-------------------|-------------------|-------------------|
-------------------|-------------------|-------------------|-------------------|
-------------------|-------------------|-------------------|-------------------|


  W                   W                   W                   W                 
-------------------|-------------------|-------------------|-------------------|
-------------------|-------------------|-------------------|-------------------|
-------------------|-------------------|-------------------|-------------------|
-------------------|-------------------|-------------------|-------------------|
-------------------|-------------------|-------------------|-------------------|
-------------------|-------------------|-------------------|-------------------|


  H        Q    S S E      S S S S S S E  E   E   S S S   S  
------------------------|-----------------------------------|
------------------------|-----------------------------------|
------------------7-7S--|--9-9-9-9-9-9-9--9S--7S--9-9-9S-11-|
------------------------|-----------------------------------|
------------------5-5S--|--7-7-7-7-7-7-7--7S--5S--7-7-7S--9-|
------------------------|-----------------------------------|


  S S S S S S E  E   E  S  S  S  S     S S S S S S E  E   E   E.    S   
------------------------------------|----------------------------------|
------------------------------------|----------------------------------|
--9-9-9-9-9-9-9--9S--7----12-12-12S-|--9-9-9-9-9-9-9--9S--7S--9S---11S-|
--------------------------12-12-12--|----------------------------------|
--7-7-7-7-7-7-7--7S--5--x-10-10-10S-|--7-7-7-7-7-7-7--7S--5S--7S----9S-|
------------------------------------|----------------------------------|


  S S S S S S E  S  S  S  S   S  E.     Q    Q    H           W                 
-------------------------------------|---------------------|-------------------|
-------------------------------------|---------------------|-------------------|
--9-9-9-9-9-9-9----12-12-12S-14-14---|--7----9-------------|-------------------|
-------------------12-12-12S-14-14---|---------------------|-------------------|
--7-7-7-7-7-7-7--x-10-10-10S-12-12---|--5----7-------------|-------------------|
-------------------------------------|---------------------|-------------------|


  Q    Q    H           W                   Q    Q    H         
---------------------|-------------------|---------------------|
---------------------|-------------------|---------------------|
--7----9-------------|-------------------|--7----9-------------|
---------------------|-------------------|---------------------|
--5----7-------------|-------------------|--5----7-------------|
---------------------|-------------------|---------------------|


  W                   Q    Q    H           W                 
-------------------|---------------------|-------------------|
-------------------|---------------------|-------------------|
-------------------|--7----9-------------|-------------------|
-------------------|---------------------|-------------------|
-------------------|--5----7-------------|-------------------|
-------------------|---------------------|-------------------|


   S S S S S S S S S S S S Q        W                 
---------------------------------|-------------------|
---------------------------------|-------------------|
---------------------------------|-------------------|
---------------------------------|-------------------|
---------------------------------|-------------------|
--10-6-0-5-0-6-0-5-0-6-0-5-3~----|-------------------|


   S S S S S S S S S S S S Q        W                   W                 
---------------------------------|-------------------|-------------------|
---------------------------------|-------------------|-------------------|
---------------------------------|-------------------|-------------------|
---------------------------------|-------------------|-------------------|
---------------------------------|-------------------|-------------------|
--10-6-0-5-0-6-0-5-0-6-0-6-8~----|-------------------|-------------------|


  W                   W                   W                   W                 
-------------------|-------------------|-------------------|-------------------|
-------------------|-------------------|-------------------|-------------------|
-------------------|-------------------|-------------------|-------------------|
-------------------|-------------------|-------------------|-------------------|
-------------------|-------------------|-------------------|-------------------|
-------------------|-------------------|-------------------|-------------------|


  W                   W                   W                 
-------------------|-------------------|-------------------|
-------------------|-------------------|-------------------|
-------------------|-------------------|-------------------|
-------------------|-------------------|-------------------|
-------------------|-------------------|-------------------|
-------------------|-------------------|-------------------|


  tr                       tr                          tr                    
  H.              E  E     H.              E  E     E  E     H        E  E   
------------------------|------------------------|--------------------------|
------------------------|------------------------|--------------------------|
------------------------|------------------------|--------------------------|
------------------------|------------------------|--------------------------|
--3(5)------------L--L--|--6(8)------------L-----|-----7(9)--L--------L-----|
------------------------|------------------------|--------------------------|


                     pick scrape                       
   tr                                                  
   H.                Q              W                  
--------------------------------|---------------------|
--------------------------------|--15b----------------|
--------------------------------|---------------------|
--------------------12\---------|---------------------|
--10(12)------------12----------|---------------------|
--------------------------------|---------------------|


   S     S   S  S  S  S  E   Q     Q      
-----------------------------------------|
--15pbr--Lp-12----12----12---L-----------|
---------------14----14-12---L-----------|
----------------------------------14\----|
-----------------------------------------|
-----------------------------------------|


          PM PM                               
   S   S  S  S  S   S  E    E   S   S  Q      
---------------------------------------------|
---------------------------------------------|
------------11-12p-11------------------------|
--14p-12-14-----------14~---L--14p-12-14~----|
---------------------------------------------|
---------------------------------------------|


                                                             pick scrape 
   PM                                                                    
   S  S  S  S   S   S  E    S  S  S   S  Q         H         H           
-----------------------------------------------|------------------------|
-----12-15-15b--Lp-12-------------------15b----|---L--------------------|
--14------------------14~---L-12-14p-12--------|-------------x\---------|
-----------------------------------------------|-------------x\---------|
-----------------------------------------------|------------------------|
-----------------------------------------------|------------------------|


   S S S S S S S S S S S S Q        W                   W                 
---------------------------------|-------------------|-------------------|
---------------------------------|-------------------|-------------------|
---------------------------------|-------------------|-------------------|
---------------------------------|-------------------|-------------------|
---------------------------------|-------------------|-------------------|
--10-6-0-5-0-6-0-5-0-6-0-5-3~----|-------------------|-------------------|


  W                   W                   W                   W                 
-------------------|-------------------|-------------------|-------------------|
-------------------|-------------------|-------------------|-------------------|
-------------------|-------------------|-------------------|-------------------|
-------------------|-------------------|-------------------|-------------------|
-------------------|-------------------|-------------------|-------------------|
-------------------|-------------------|-------------------|-------------------|


  W                   W                   W                 
-------------------|-------------------|-------------------|
-------------------|-------------------|-------------------|
-------------------|-------------------|-------------------|
-------------------|-------------------|-------------------|
-------------------|-------------------|-------------------|
-------------------|-------------------|-------------------|


                                                  W             
  Q    E      E   E   E   E       E      Q.       E   H         
-------------------------------------|-------------------------|
-------------------------------------|-------------------------|
-----------------13--15--15b--13g15--|---L~-------L\-----------|
----------/8g15----------------------|-------------------------|
-------------------------------------|-------------------------|
-------------------------------------|-------------------------|


  Q     E     S  S  Q      E   E     Q    E   E    H         
----------------------------------|-------------------------|
----------------------------------|----------16b---L--------|
-------15br--13----13~-----L\-----|-------------------------|
----------------15----------------|-------------------------|
----------------------------------|-------------------------|
----------------------------------|-------------------------|


  W                    E   E   Q      E    E   Q        W                 
-------------------|---------------------------------|-------------------|
-------------------|---------------------------------|-------------------|
-------------------|------13--15b----13b-------------|-------------------|
-------------------|--15------------------15---L~----|-------------------|
-------------------|---------------------------------|-------------------|
-------------------|---------------------------------|-------------------|


   tr                                                                    
   W                        H         S  E.   Q        W                 
------------------------|---------------------------|-------------------|
------------------------|---------------------------|-------------------|
------------------------|---------------------------|-------------------|
--13(15)----------------|---L---------L-15----L~----|-------------------|
------------------------|---------------------------|-------------------|
------------------------|---------------------------|-------------------|


  W                                          
-------------------------------------------||
-------------------------------------------||
-------------------------------------------||
-------------------------------------------||
-------------------------------------------||
-------------------------------------------||










Lead # 2:



      W                   W                   W                 
C#||-------------------|-------------------|-------------------|
G#||-------------------|-------------------|-------------------|
E ||-------------------|-------------------|-------------------|
B ||-------------------|-------------------|-------------------|
F#||-------------------|-------------------|-------------------|
B ||-------------------|-------------------|-------------------|


  W                   W                   W                   W                 
-------------------|-------------------|-------------------|-------------------|
-------------------|-------------------|-------------------|-------------------|
-------------------|-------------------|-------------------|-------------------|
-------------------|-------------------|-------------------|-------------------|
-------------------|-------------------|-------------------|-------------------|
-------------------|-------------------|-------------------|-------------------|


  W                   W                   W                   W                 
-------------------|-------------------|-------------------|-------------------|
-------------------|-------------------|-------------------|-------------------|
-------------------|-------------------|-------------------|-------------------|
-------------------|-------------------|-------------------|-------------------|
-------------------|-------------------|-------------------|-------------------|
-------------------|-------------------|-------------------|-------------------|


  W                   W                   W                   W                 
-------------------|-------------------|-------------------|-------------------|
-------------------|-------------------|-------------------|-------------------|
-------------------|-------------------|-------------------|-------------------|
-------------------|-------------------|-------------------|-------------------|
-------------------|-------------------|-------------------|-------------------|
-------------------|-------------------|-------------------|-------------------|


  W                   W                   W                   W                 
-------------------|-------------------|-------------------|-------------------|
-------------------|-------------------|-------------------|-------------------|
-------------------|-------------------|-------------------|-------------------|
-------------------|-------------------|-------------------|-------------------|
-------------------|-------------------|-------------------|-------------------|
-------------------|-------------------|-------------------|-------------------|


  W                   W                   W                   W                 
-------------------|-------------------|-------------------|-------------------|
-------------------|-------------------|-------------------|-------------------|
-------------------|-------------------|-------------------|-------------------|
-------------------|-------------------|-------------------|-------------------|
-------------------|-------------------|-------------------|-------------------|
-------------------|-------------------|-------------------|-------------------|


  W                   W                   W                   W                 
-------------------|-------------------|-------------------|-------------------|
-------------------|-------------------|-------------------|-------------------|
-------------------|-------------------|-------------------|-------------------|
-------------------|-------------------|-------------------|-------------------|
-------------------|-------------------|-------------------|-------------------|
-------------------|-------------------|-------------------|-------------------|


  W                   W                   W                   W                 
-------------------|-------------------|-------------------|-------------------|
-------------------|-------------------|-------------------|-------------------|
-------------------|-------------------|-------------------|-------------------|
-------------------|-------------------|-------------------|-------------------|
-------------------|-------------------|-------------------|-------------------|
-------------------|-------------------|-------------------|-------------------|


  W                   W                   W                   W                 
-------------------|-------------------|-------------------|-------------------|
-------------------|-------------------|-------------------|-------------------|
-------------------|-------------------|-------------------|-------------------|
-------------------|-------------------|-------------------|-------------------|
-------------------|-------------------|-------------------|-------------------|
-------------------|-------------------|-------------------|-------------------|


  W                   W                   W                   W                 
-------------------|-------------------|-------------------|-------------------|
-------------------|-------------------|-------------------|-------------------|
-------------------|-------------------|-------------------|-------------------|
-------------------|-------------------|-------------------|-------------------|
-------------------|-------------------|-------------------|-------------------|
-------------------|-------------------|-------------------|-------------------|


  W                   W                   W                   W                 
-------------------|-------------------|-------------------|-------------------|
-------------------|-------------------|-------------------|-------------------|
-------------------|-------------------|-------------------|-------------------|
-------------------|-------------------|-------------------|-------------------|
-------------------|-------------------|-------------------|-------------------|
-------------------|-------------------|-------------------|-------------------|


  W                   W                   W                   W                 
-------------------|-------------------|-------------------|-------------------|
-------------------|-------------------|-------------------|-------------------|
-------------------|-------------------|-------------------|-------------------|
-------------------|-------------------|-------------------|-------------------|
-------------------|-------------------|-------------------|-------------------|
-------------------|-------------------|-------------------|-------------------|


  W                   W                   W                   W                 
-------------------|-------------------|-------------------|-------------------|
-------------------|-------------------|-------------------|-------------------|
-------------------|-------------------|-------------------|-------------------|
-------------------|-------------------|-------------------|-------------------|
-------------------|-------------------|-------------------|-------------------|
-------------------|-------------------|-------------------|-------------------|


  W                   W                   W                   W                 
-------------------|-------------------|-------------------|-------------------|
-------------------|-------------------|-------------------|-------------------|
-------------------|-------------------|-------------------|-------------------|
-------------------|-------------------|-------------------|-------------------|
-------------------|-------------------|-------------------|-------------------|
-------------------|-------------------|-------------------|-------------------|


                                                            pick scrape 
   PM                                                                   
   S  S  S  S    S   S  E   S  S  S  S  Q         H         H           
-----------15br--Lp-12-----------------15b----|---L--------------------|
-----12-15-------------15---L-12-15-12--------|------------------------|
--14------------------------------------------|-------------x\---------|
----------------------------------------------|-------------x\---------|
----------------------------------------------|------------------------|
----------------------------------------------|------------------------|


  W                   W                   W                   W                 
-------------------|-------------------|-------------------|-------------------|
-------------------|-------------------|-------------------|-------------------|
-------------------|-------------------|-------------------|-------------------|
-------------------|-------------------|-------------------|-------------------|
-------------------|-------------------|-------------------|-------------------|
-------------------|-------------------|-------------------|-------------------|


  W                   W                   W                   W                 
-------------------|-------------------|-------------------|
Добавлено: 22.03.2012
Другие материалы по этой песне:

Страница создана 22.03.2012
http://primanota.ru/sevendust/prodigal-son-chords.htm
Привет, Гость.
Предлагаем пройти революционный курс по гитаре.
Подарок от PrimaNota.Ru, забирай!