PrimaNota.ru - самый крупный в мире бесплатный архив песенных текстов, аккордов, табулатур и нот


Sevendust - Peace And Destruction - таба, видео

Регистрация Запомнить меня
Войти через:  Facebook Google Twitter Vk Yandex Mail.ru

Sevendust - Peace And Destruction - таба, видео

Печатать
Просмотров: 65
Sevendust: Peace And Destruction

Transcribed by: mysticguitar77

Facebook: https://www.facebook.com/MysticGuitar77
YouTube Channel: https://www.youtube.com/user/MysticGuitar77

Date last modified: October 18, 2015

Tuning: Modified Drop B (B,F#,B,E,F#,B)

Riff 1 (w/ heavy delay)
 B|-------------------------0-0-----------------------------------|
F#|-7h8p7-7h8p7-7h8p7-7h8p7-----7h8p7-7h8p7-7h8p7-7h8p7-7h8p7-7h8-|
 E|---------------------------------------------------------------|
 B|---------------------------------------------------------------| repeats throughout entire intro
F#|---------------------------------------------------------------|
 B|---------------------------------------------------------------|

Riff 2
 B|-------------------------------------------------------------------------------------------------|
F#|-------------------------------------------------------------------------------------------------|
 E|---------------7~--6~------------------------------------------7~--6~----------------------------|
 B|-6b-----2b-----x---x--6-6\-----------------------6b-----2b-----x---x--6-6\-----------------------|
F#|-x--x-x-x--x-x-5~--4~-x-x------------------------x--x-x-x--x-x-5~--4~-x-x------------------------|
 B|-6b-x-x-2b-x-x--------6-6\---6-3--3-2---3-2--3-0-6b-x-x-2b-x-x--------6-6\---6-3--3-0---3-2--3-0-|

Riff 3
 B|--------------------------------------------0----------0-----|
F#|--------------------------------------------0----------0-----|
 E|-4-4-4-4------4-4-4-4----------4-4-4-4-----------------------|
 B|-2-2-2-2--2-0-2-2-2-2--2-3-2-0-2-2-2-2--2h3--------2h3-------|
F#|-2-2-2-2--2-0-2-2-2-2--2-3-2-0-2-2-2-2-----------------------|
 B|-2-2-2-2--2-0-2-2-2-2--2-3-2-0-2-2-2-2--------000--------000-|
               *            * * *

Play Riff 3 x2
(rest)
Play Riff 3 x2   "I see the devil and he knows your name..."

Riff 4   "The voids we fill don't make us beautiful..."
 B|------------------------------------------------------------------0-0-0-0-0-0-0-0-0-0-|
F#|------------------------------------------------------------------0-0-0-0-0-0-0-0-0-0-|
 E|-14-14-14-14-14/16-14-17-17-16-14-14-14/16-14-14-14\13-13-13-13\9-9-9-9\7-7-7-7/9-7/9-|
 B|-x--x--x--x--x--x--x--x--x--x--x--x--x--x--x--x--x--x--x--x--x--x-x-x-x-x-x-x-x-x-x-x-| x2
F#|-12-12-12-12-12/14-12-15-15-14-12-12-12/14-12-12-12\11-11-11-11\7-7-7-7\5-5-5-5/7-5/7-|
 B|--------------------------------------------------------------------------------------|

 B|-------------------------------------------------|
F#|-------------------------------------------------|
 E|-14-14-14-14-14/16-14-17-17-16-14-14-14/16-12/16-|
 B|-x--x--x--x--x--x--x--x--x--x--x--x--x--x--x--x--|
F#|-12-12-12-12-12/14-12-15-15-14-12-12-12/14-12/14-|
 B|-------------------------------------------------|

Riff 5   "So cut it down..."
 B|---------------------------|
F#|---------------------------|
 E|---------------------------|
 B|-2-2-2-2/6--6-3-3--3-3-2-0-|
F#|-2-2-2-2/6--6-3-3--3-3-2-0-|
 B|-2-2-2-2/6--6-3-3--3-3-2-0-|

Play Riff 5 x2   "So cut it..."
Play Riff 1 x6   "I want the fight without a choice..."
Play Riff 3 x2   "I see the devil and he knows your name..."
Play Riff 4 x1   "The voids we fill don't make us beautiful..."
Play Riff 5 x2   "So cut it down..."
Play Riff 1 throughout bridge

Riff 6
 B|----------------------------------------------------------------------------------0-|
F#|----------------------------------------------------------------------------------0-|
 E|-x-x-4-4-4-4------4-4-4-4----------3-------4-4-4-4------4-4-4-4----------3----------|
 B|-x-x-2-2-2-2--2-0-2-2-2-2--2-3-2-0-1-------2-2-2-2--2-0-2-2-2-2--2-3-2-0-1----------|
F#|-x-x-2-2-2-2--2-0-2-2-2-2--2-3-2-0-1-------2-2-2-2--2-0-2-2-2-2--2-3-2-0-1----------|
 B|-x-x-2-2-2-2--2-0-2-2-2-2--2-3-2-0-1-------2-2-2-2--2-0-2-2-2-2--2-3-2-0-1----------|
                   *            * * *                    *            * * *
 
Riff 7
 B|----------------------------|
F#|----------------------------|
 E|-4-4-4-4------4-4-4-4-------|
 B|-2-2-2-2--2-0-2-2-2-2--2-3/-|
F#|-2-2-2-2--2-0-2-2-2-2--2-3/-|
 B|-2-2-2-2--2-0-2-2-2-2--2-3/-|
               * 

Play Riff 7 x3

Fill 1
 B|-------------------------------------|
F#|-------------------------------------|
 E|-------------------------------------|
 B|-------------2-3--------------2-0-2~-|
F#|-------------2-3--------------2-0-2~-|
 B|-6-3-0-3-2-0-2-3--6-3-0-3-2-0-2-0-2~-|
    * * * * * *   *  * * * * * *   *

Play Riff 4 x2   "The voids we fill don't make us beautiful..."
Play Riff 5 x2   "So cut it down..."
Play Riff 7 x2

Riff 8 (let all notes ring out)
 B|---------------------------------------------------------------------------|
F#|---------------------------------------------------------------------------|
 E|---------------------------------------------------------------------------|
 B|-----0---0---0----0---0-------0---0---0----0---0---0----0-------------2-1~-|
F#|----------------------------------------------------------------------2-1~-|
 B|-2b3---2---0---/6---3---3-2b3---2---0--2b3---2---0---/6---6-3-0-3-2-0-2-1~-|
                                                             * * * * * * * *

Enjoy!!


Добавлено: 07.06.2016
Другие материалы по этой песне:
  • Аккорды и текст

Страница создана 07.06.2016
http://primanota.ru/sevendust/peace-and-destruction-chords.htm
Привет, Гость.
Предлагаем пройти революционный курс по гитаре.
Подарок от PrimaNota.Ru, забирай!