PrimaNota.ru - самый крупный в мире бесплатный архив песенных текстов, аккордов, табулатур и нот


Sevendust - Nowhere - таба, видео

Регистрация Запомнить меня
Войти через:  Facebook Google Twitter Vk Yandex Mail.ru

Sevendust - Nowhere - таба, видео

Печатать
Просмотров: 92
Sevendust: Nowhere

Transcribed by: mysticguitar77

YouTube Channel: https://www.youtube.com/user/MysticGuitar77

Date last modified: March 2, 2015

Tuning: Modified Drop B (B,F#,B,E,F#,B)

Riff 1
 B|-----0-------------0-------------0-------------0-------0-------|
F#|---------------------------------------------------------------|
 E|---------------------------------------------------------------|
 B|-7/9---9-9-9-9-9\4---4-4-4-4-4/5---5-5-5-5-5\2---2-2/4---4-4/9-|
F#|---------------------------------------------------------------|
 B|---------------------------------------------------------------|
          * * * *       * * * *       * * * *       *       *

Play Riff 1 x2

Riff 2
 B|----------------------------------------|
F#|----------------------------------------|
 E|-4--------4--------4--------4---7-7-7-7-|
 B|-4--------4--------4--------4---7-7-7-7-|
F#|-2-0-2--0-2-0-2--0-2-0-2--0-2-0-5-5-5-5-|
 B|---0-2--0---0-2--0---0-2--0---0---------|
      * *  *   * *  *   * *  *   

Play Riff 2 x3

Riff 3   "Is this the life you made..."
 B|-----------------------------------------------------------------|
F#|-----------------------------------------------------------------|
 E|-----------------------------------------------------------------|
 B|-----------------------------------------------------------------| w/ wah filter
F#|-2-2-2-2-5-2-2-5---------5-----5-1-1-1-1-4-1-1-4-----------------|
 B|-----------------0-0-0-0---0-0-------------------2-2-2-2-4-4-4-4-|
    * * * *   * *   * * * *   * *   * * * *   * *   * * * * * * * *

Play Riff 3 x2   "Is there a point we..."

Riff 4   "Same old song and hope they..."
 B|-----------------------------------------------------------------|
F#|-----------------------------------------------------------------|
 E|---------7-----7---------7-----7---------6-----6-----------------|
 B|-9-9-9-9---9-9---0-0-0-0---0-0---8-8-8-8---8-8---2-2-2-2-4-4-4-4-|
F#|-----------------------------------------------------------------|
 B|-----------------------------------------------------------------|
    * * * *   * *   * * * *   * *   * * * *   * *   * * * * * * * *

Play Riff 4 x2   "...play along..."

Fill 1
 B|------------------------------|
F#|------------------------------|
 E|-4--------4--------4--------4-|
 B|-4--------4--------4--------4-|
F#|-2-0-2--0-2-0-2--0-2-0-2--0-2-|
 B|---0-2--0---0-2--0---0-2--0---|
      * *  *   * *  *   * *  *

Riff 5   "We'll run, run away out to nowhere..."
 B|-----------------------------------------------------------------|
F#|-----------------------------------------------------------------|
 E|-4-4-4-4-4-4-4-4-6-6-6-6-7-7-7-7-----------------7-7-7-7-9-9-9-9-|
 B|-4-4-4-4-4-4-4-4-x-x-x-x-x-x-x-x-4-4-4-4-4-4-4-4-x-x-x-x-x-x-x-x-|
F#|-2-2-2-2-2-2-2-2-4-4-4-4-5-5-5-5-4-4-4-4-4-4-4-4-5-5-5-5-7-7-7-7-|
 B|---------------------------------4-4-4-4-4-4-4-4-----------------|

 B|-----------------------------------------------------------------|
F#|-----------------------------------------------------------------|
 E|-----------------9-9-9-9-11-11-11-11-----------------------------|
 B|-5-5-5-5-5-5-5-5-x-x-x-x-x--x--x--x------------------------------|
F#|-5-5-5-5-5-5-5-5-7-7-7-7-9--9--9--9--0-2--0-2-0------------------|
 B|-5-5-5-5-5-5-5-5---------------------0-2--0-2-0--0-2-2-2-0-4-4-4-|
                                        * *  *  

 B|---------------------------------------------------------------------|
F#|---------------------------------------------------------------------|
 E|-4-4-4-4-4-4-4-4-6-6-6-6-7-7-7-7-----------------9-9-9-9-11-11-11-11-|
 B|-4-4-4-4-4-4-4-4-x-x-x-x-x-x-x-x-4-4-4-4-4-4-4-4-x-x-x-x-x--x--x--x--|
F#|-2-2-2-2-2-2-2-2-4-4-4-4-5-5-5-5-4-4-4-4-4-4-4-4-7-7-7-7-9--9--9--9--|
 B|---------------------------------4-4-4-4-4-4-4-4---------------------|

 B|---------------------------------------------------------------------|
F#|---------------------------------------------------------------------|
 E|-----------------14-14-14-14-16-16-16-16-----------------------------|
 B|-7-7-7-7-7-7-7-7-x--x--x--x--x--x--x--x------------------------------|
F#|-7-7-7-7-7-7-7-7-12-12-12-12-14-14-14-14-0-2--0-2-0------------------|
 B|-7-7-7-7-7-7-7-7-------------------------0-2--0-2-0--0-2-2-2-0-4-4-4-|
                                            * *  *

Play Riff 4 x1
Play Riff 3 x2   "Please stop the broken record..."
Play Riff 4 x2   "So play that song..."
Play Riff 2 x1

Fill 2
 B|----------------------------------|
F#|----------------------------------|
 E|-4--------/7--------/9--------/11-|
 B|-4---------x---------x---------x--|
F#|-2-0-2--0-/5-0-2--0-/7-0-2--0-/9--|
 B|---0-2--0----0-2--0----0-2--0-----|
      * *  *    * *  *    * *  *

Play Riff 5 x1   "We'll run, run away out to nowhere..."

Fill 3   "At all..."
 B|--------------------|
F#|--------------------|
 E|-4~-----------------|
 B|-x------------------|
F#|-2~-----------------|
 B|--------------------|

Solo
 B|----------------------------------------------|
F#|----------------------------------------------|
 E|-/7~----/9~--/6~--4~--/6~--/7~--/12~--11~--9~-|
 B|----------------------------------------------|
F#|----------------------------------------------|
 B|----------------------------------------------|

 B|---------------------------------------------------------------------------------------------|
F#|---------------------------------------------------------------------------------------------|
 E|-9h11p9----9------------9-------11-------12-------11-------11-------/11-------11-----11------|
 B|--------12---12-11-9-11---12-12----14-14----16-16----14-14----12-12-----11-11----9-9----9-8~-|
F#|---------------------------------------------------------------------------------------------|
 B|---------------------------------------------------------------------------------------------|
           *  * *  *  * *    *  *     *  *     *  *     *  *     *  *      *  *     * *

 B|------------------------12-------11----12----14-|
F#|-----------------12-----------------------------|
 E|-------------/11----11-----11-11----11----11----|
 B|-/9--/11-12~------------------------------------|
F#|------------------------------------------------|
 B|------------------------------------------------|
                              *  *     *     *

 B|-12-----11-----9---11----12----12-------11-------14----12ph~------------------|
F#|-------------------------------------------------------------------12b14r12-9-|
 E|----9-9----9-9---9----11----11----11-11----11-11----11-------11-11------------|
 B|------------------------------------------------------------------------------|
F#|------------------------------------------------------------------------------|
 B|------------------------------------------------------------------------------|
       * *    * *   *    *     *     *  *     *  *    *         *  *

 B|-/9-9------/12-12-------/14-14-------/12-12--------/14-14-12-11-------12----12-14/16-|
F#|------12p9--------14p12--------17p14---------14p12--------------12/14----14----------|
 E|-------------------------------------------------------------------------------------|
 B|-------------------------------------------------------------------------------------|
F#|-------------------------------------------------------------------------------------|
 B|-------------------------------------------------------------------------------------|

 B|-14-16-17-16-17h19-17h19-17\16-16h17-19b21--b21--b21--b21~--21b23--b23--22b24--b24~-|
F#|------------------------------------------------------------------------------------|
 E|------------------------------------------------------------------------------------|
 B|------------------------------------------------------------------------------------|
F#|------------------------------------------------------------------------------------|
 B|------------------------------------------------------------------------------------|

Riff 6 (solo rhythm), let chords ring out)
 B|---------------------|
F#|---------------------|
 E|-4-------------------|
 B|-4----0----4----2--0-| x2
F#|-2----0----4----2--0-|
 B|------0----4----2--0-|

Play Riff 2 x1
Play Fill 2 x1
Play Riff 5 x2   "We'll run, run away out to nowhere..."

Riff 7
 B|---------------------------|
F#|---------------------------|
 E|---------------------------|
 B|---------------------------|
F#|-0-2--0-2-0-0-2--0---------|
 B|-0-2--0-2-0-0-2--0-2h3p2p0-|
    * *  *     * *  *

Play Riff 7 x3

Ending 
 B|-------------------0-0-|
F#|-------------------0-0-|
 E|-------------------4-4-|
 B|-------------------4-4-|
F#|-0-2--0-2-0-0-2--0-2-2-|
 B|-0-2--0-2-0-0-2--0-----|
    * *  *     * *  *

Enjoy!!
Добавлено: 19.10.2015
Другие материалы по этой песне:
  • Аккорды и текст

Страница создана 19.10.2015
http://primanota.ru/sevendust/nowhere-chords.htm
Привет, Гость.
Предлагаем пройти революционный курс по гитаре.
Подарок от PrimaNota.Ru, забирай!