PrimaNota.ru - самый крупный в мире бесплатный архив песенных текстов, аккордов, табулатур и нот


Sevendust - Letters - таба, видео

Регистрация Запомнить меня
Войти через:  Facebook Google Twitter Vk Yandex Mail.ru

Sevendust - Letters - таба, видео

Печатать
Просмотров: 100
Sevendust: Letters

Transcribed by: mysticguitar77

Facebook: https://www.facebook.com/MysticGuitar77
YouTube Channel: https://www.youtube.com/user/MysticGuitar77

Date last modified: October 17, 2015

Tuning: Modified Drop B (B,F#,B,E,F#,B)

Riff 1   "If you could see inside of me..."
 B|-------------------------------------------------------------------------------------------------|
F#|-------13-------13----13-------13-------13----13-------13-------13----13-------13-------------13-|
 E|-------14-------14----14-------14-------14----14-------14-------14----14-------14-------12h14----|
 B|-12-12-12-12-12-12-12-12-12-12-12-12-12-12-12-12-12-12-12-12-12-12-12-12-12-12-12-12-12----------| x2
F#|-------------------------------------------------------------------------------------------------|
 B|-------------------------------------------------------------------------------------------------|
    *  *     *  *     *     *  *     *  *     *     *  *     *  *     *     *  *     *  *

 B|-------------------------------------------------------------------------------------------------|
F#|-13----13-------13----13-------13-------13----13-------13-------13----13-------13-------------13-|
 E|-14----14-------14----14-------14-------14----14-------14-------14----14-------14-------12h14----|
 B|-12-12-12-12-12-12-12-12-12-12-12-12-12-12-12-12-12-12-12-12-12-12-12-12-12-12-12-12-12----------|
F#|-------------------------------------------------------------------------------------------------|
 B|-------------------------------------------------------------------------------------------------|
       *     *  *     *     *  *     *  *     *     *  *     *  *     *     *  *     *  *

 B|----------------------------------------------------------------------------------------------|
F#|-13----13-------13----13-------13-------13----13-------13-------13----13-13-13-13-13-12-12-12-|
 E|-14----14-------14----14-------14-------14----14-------14-------14----14-14-14-14-14-12-12-12-|
 B|-12-12-12-12-12-12-12-12-12-12-12-12-12-12-12-12-12-12-12-12-12-12-12-12-12-12-12-12-12-12-12-|
F#|----------------------------------------------------------------------------------------------|
 B|----------------------------------------------------------------------------------------------|
       *     *  *     *     *  *     *  *     *     *  *     *  *     *

Fill 1   "And see the light of day..." (clean, let all notes ring out)
 B|-------------------------------0-|
F#|----0-------0--------------------|
 E|-9------10------0----------------|
 B|-------------------7--7b8r7------|
F#|---------------------------------|
 B|---------------------------------|

Riff 2   "I write a letter just to say..."
 B|-0--0--0--0--0--0--0--0--0--0--0--0--0--0--0--0--0-0-0-0-0-0-0-0-0-0-0-0-0-0-0-0-|
F#|-0--0--0--0--0--0--0--0--0--0--0--0--0--0--0--0--0-0-0-0-0-0-0-0-0-0-0-0-0-0-0-0-|
 E|-10-10-10-10-10-10-10-10-10-10-10-10-10-10-10-10-5-5-5-5-5-5-5-5-5-5-5-5-5-5-5-5-|
 B|-x--x--x--x--x--x--x--x--x--x--x--x--x--x--x--x--3-3-3-3-3-3-3-3-3-3-3-3-3-3-3-3-|
F#|-8--8--8--8--8--8--8--8--8--8--8--8--8--8--8--8--3-3-3-3-3-3-3-3-3-3-3-3-3-3-3-3-|
 B|-0--0--0--0--0--0--0--0--0--0--0--0--0--0--0--0--3-3-3-3-3-3-3-3-3-3-3-3-3-3-3-3-|

 B|-0-0-0-0-0-0-0-0-0-0-0-0-0-0-0-0-------------------------------------------------|
F#|-0-0-0-0-0-0-0-0-0-0-0-0-0-0-0-0-------------------------------------------------|
 E|-7-7-7-7-7-7-7-7-7-7-7-7-7-7-7-7-8-8-8-10-10-10-12-12-12-12-12-12/14-14-14-14-14-|
 B|-5-5-5-5-5-5-5-5-5-5-5-5-5-5-5-5-x-x-x-x--x--x--x--x--x--x--x--x--x--x--x--x--x--|
F#|-5-5-5-5-5-5-5-5-5-5-5-5-5-5-5-5-6-6-6-8--8--8--10-10-10-10-10-10/12-12-12-12-12-|
 B|-5-5-5-5-5-5-5-5-5-5-5-5-5-5-5-5-------------------------------------------------|

 B|-0--0--0--0--0--0--0--0--0--0--0--0--0--0--0--0--0-0-0-0-0-0-0-0-0-0-0-0-0-0-0-0-|
F#|-0--0--0--0--0--0--0--0--0--0--0--0--0--0--0--0--0-0-0-0-0-0-0-0-0-0-0-0-0-0-0-0-|
 E|-10-10-10-10-10-10-10-10-10-10-10-10-10-10-10-10-5-5-5-5-5-5-5-5-5-5-5-5-5-5-5-5-|
 B|-x--x--x--x--x--x--x--x--x--x--x--x--x--x--x--x--3-3-3-3-3-3-3-3-3-3-3-3-3-3-3-3-|
F#|-8--8--8--8--8--8--8--8--8--8--8--8--8--8--8--8--3-3-3-3-3-3-3-3-3-3-3-3-3-3-3-3-|
 B|-0--0--0--0--0--0--0--0--0--0--0--0--0--0--0--0--3-3-3-3-3-3-3-3-3-3-3-3-3-3-3-3-|

 B|-0-0-0-0-0-0-0-0-0-0-0-0-0-0-0-0-0-0-0-0-0-0-0-0-0-0-0-0-0--0--0--0--|
F#|-0-0-0-0-0-0-0-0-0-0-0-0-0-0-0-0-0-0-0-0-0-0-0-0-0-0-0-0-0--0--0--0--|
 E|-7-7-7-7-7-7-7-7-9-9-9-9-9-9-9-9-7-7-7-7-7-7-7-7-9-9-9-9-9b-9b-9b-9b-|
 B|-5-5-5-5-5-5-5-5-7-7-7-7-7-7-7-7-x-x-x-x-x-x-x-x-x-x-x-x-x--x--x--x--|
F#|-5-5-5-5-5-5-5-5-7-7-7-7-7-7-7-7-5-5-5-5-5-5-5-5-7-7-7-7-7b-7b-7b-7b-|
 B|-5-5-5-5-5-5-5-5-7-7-7-7-7-7-7-7-0-0-0-0-0-0-0-0-0-0-0-0-0--0--0--0--|

Fill 2
 B|-0~~--15~---17\14~----------12----0--0--0--0--|
F#|-13~-----------------12\10-----10-13-13-13-13-|
 E|-14~------------------------------------------|
 B|----------------------------------------------|
F#|----------------------------------------------|
 B|----------------------------------------------|

Play Riff 1 x1   "I saw weakness..."
                  (strumming pattern changes slightly for the 2nd verse, listen to song for it)

Fill 3
 B|-------15----15----17\14>>>-|
F#|-15-17----17----17----------|
 E|----------------------------|
 B|----------------------------|
F#|----------------------------|
 B|----------------------------|
                         ^ whammy pedal pitch down

Play Riff 2 x1   "I write a letter just to say..."

Riff 3 - Guitar 1
 B|-------------------------|
F#|-------------------------|
 E|-------------------------|
 B|-3-1-0-1-----1-3-1-0-----|
F#|-3-1-0-1-0-0-1-3-1-0-0-0-|
 B|-3-1-0-1-0-0-1-3-1-0-0-0-|
            * *         * *

Play Riff 3 x4

Riff 3 - Guitar 2 (enters after you play above twice)
 B|--------------------------|
F#|--------------------------|
 E|-10-8-7-8\---8-10-8-7-----|
 B|-x--x-x-x----x-x--x-x-----|
F#|-8--6-5-6\-0-6-8--6-5-0-0-|
 B|-----------0----------0-0-|
              *          * *

Riff 4   "The rest of my life..."
 B|-----------------------------------------------------------------------|
F#|-----------------------------------------------------------------------|
 E|-----------------------------------------------------------------------|
 B|-0-0-0-0--------8-8-8-8\--------5-5-5-5\-------3-3-3-3-x-x-3-3-3-3-3-3-|
F#|-0-0-0-0--------8-8-8-8\--------5-5-5-5\-------3-3-3-3-x-x-1-1-1-1-1-1-|
 B|-0-0-0-0--------8-8-8-8\--------5-5-5-5\-------3-3-3-3-x-x-1-1-1-1-1-1-|

Play Riff 4 x2   "I don't give a damn..."

Fill 4 (light distortion)
 B|-----------------------------------------------------|
F#|-----------------------------------------------------|
 E|-----------------------------------------------------|
 B|-------------------------------------------------2-2-|
F#|-5-5-5-5-5-5-5-5-8-8-8-8-8-8-8-8-7-7-7-7-7-7-7-7-0-0-|
 B|-0-0-0-0-0-0-0-0-0-0-0-0-0-0-0-0-0-0-0-0-0-0-0-0-----|
    * * * * * * * * * * * * * * * * * * * * *

Play Riff 2 x1.5   "I write a letter just to say..."
                   (first half gets repeated twice this time)
Play Riff 3 x4 (Guitar 1)
Play Riff 3 x2 (Guitar 2)

Enjoy!!

Добавлено: 07.06.2016
Другие материалы по этой песне:
  • Аккорды и текст

Страница создана 07.06.2016
http://primanota.ru/sevendust/letters-chords.htm
Привет, Гость.
Предлагаем пройти революционный курс по гитаре.
Подарок от PrimaNota.Ru, забирай!