PrimaNota.ru - самый крупный в мире бесплатный архив песенных текстов, аккордов, табулатур и нот


Sevendust - Kill The Flaw - таба, видео

Регистрация Запомнить меня
Войти через:  Facebook Google Twitter Vk Yandex Mail.ru

Sevendust - Kill The Flaw - таба, видео

Печатать
Просмотров: 91
Sevendust: Kill The Flaw

Transcribed by: mysticguitar77

Facebook: https://www.facebook.com/MysticGuitar77
YouTube Channel: https://www.youtube.com/user/MysticGuitar77

Date last modified: October 7, 2015

Tuning: Modified Drop A# (A#,F,A#,D#,F,A#)

Intro
A#|----------------------|
 F|----------------------|
D#|----------------------|
A#|----------------------| x2
 F|----------------------|
A#|-0-0--0-0-0--0-0-0--0-|
    * *  * * *  * * *  *

A#|-----------------------------------------------------------------------------------------|
 F|-----------------------------------------------------------------------------------------|
D#|-----------------------------------------------------------------------------------------|
A#|-------------------------------------------------------------12--------------------------|
 F|-------------------------12--------------------------------------------------------------|
A#|-12-13-14-15-12-13-14-15----15-14-13-12-13-14-15-12-13-14-15----15-14-13-12-13-14-15-12\-|

Riff 1   "Shocking, it tastes so wrong it burns..."
A#|-----------------------------------------------------------------|
 F|-----------------------------------------------------------------|
D#|-----------------------------------------------------------------|
A#|-------------------------------------------------------3-------3-|
 F|---3-------3-------3-------3-------3h5-----3h5-----3h5-----3h5---|
A#|-0---0-0-0---0-0-0---0-0-0---0-0-0-----0-x-----0-x ------x-------|
    *   * * *   * * *   * * *   * * * 

A#|-----------------------------------------------------------------|
 F|-----------------------------------------------------------------|
D#|-----------------------------------------------------------------|
A#|-----------------------------------------------------------------|
 F|---3-------3-------3-------3-------3h5-----3h5-------------------|
A#|-0---0-0-0---0-0-0---0-0-0---0-0-0-----0-x-----0--0-0-0-5-5-5-5b-|
    *   * * *   * * *   * * *   * * *

A#|-----------------------------------------------------------------|
 F|-----------------------------------------------------------------|
D#|---5-------5-------5-------5-------------------------------------|
A#|---x-------x-------x-------x---------------------------3-------3-|
 F|---3-------3-------3-------3-------3h5-----3h5-----3h5-----3h5---|
A#|-0---0-0-0---0-0-0---0-0-0---0-0-0-----0-x-----0-x-------x-------|
    *   * * *   * * *   * * *   * * *

A#|-----------------------------------------------------------------|
 F|-----------------------------------------------------------------|
D#|---5-------5-------5-------5-------------------------------------|
A#|---x-------x-------x-------x-------------------------------------|
 F|---3-------3-------3-------3-------3h5-----3h5-------------------|
A#|-0---0-0-0---0-0-0---0-0-0---0-0-0-----0-x-----0--0-0-0-5-5-5-5b-|
    *   * * *   * * *   * * *   * * *

Riff 2   "Travel back from going nowhere..." (let all notes ring out)
A#|-------2--------------2--------------3--------------0--------|
 F|----------0---0----------0---0----------0---0---0------0---0-|
D#|---0--------0-----0--------0-----0--------0-------0------0---|
A#|-----2--------------2--------------3-------------------------|
 F|-------------------------------------------------------------|
A#|-2--------------2--------------3--------------5--------------|

Riff 3   "If I would have ever..."
A#|-0---0--0--0---0--0--0---0--0--0---0--0--0---0--0--0---0--0--0---0--0--0--0--0--|
 F|-0---0--0--0---0--0--0---0--0--0---0--0--0---0--0--0---0--0--0---0--0--0--0--0--|
D#|-10--10-10-10--10-10-10--10-10-10--10-10-10--10-10-10--10-10-10--10-10/12-12-12-|
A#|-8---8--8--8---8--8--8---8--8--8---8--8--8---8--8--8---8--8--8---8--8//10-10-10-|
 F|-8---8--8--8---8--8--8---8--8--8---8--8--8---8--8--8---8--8--8---8--8//10-10-10-|
A#|-8---8--8--8---8--8--8---8--8--8---8--8--8---8--8--8---8--8--8---8--8//10-10-10-|

A#|-0--0-0-0--0-0-0--0-0-0--0-0-0--0-0-0--0-0-0--0-0-0--0--0--|
 F|-0--0-0-0--0-0-0--0-0-0--0-0-0--0-0-0--0-0-0--0-0-0--0--0--|
D#|-9--9-9-9--9-9-9--9-9-9--9-9-9--9-9-9--9-9-9--9-9/10-10-10-|
A#|-7--7-7-7--7-7-7--7-7-7--7-7-7--7-7-7--7-7-7--7-7/8--8--8--|
 F|-7--7-7-7--7-7-7--7-7-7--7-7-7--7-7-7--7-7-7--7-7/8--8--8--|
A#|-7--7-7-7--7-7-7--7-7-7--7-7-7--7-7-7--7-7-7--7-7/8--8--8--|

A#|-0--0-0-0--0-0-0--0-0-0--0-0-0--0-0-0--0-0-0--0-0-0--0-0-0--0-0-0--0-0-0--0-0-0--0-0-0-|
 F|-0--0-0-0--0-0-0--0-0-0--0-0-0--0-0-0--0-0-0--0-0-0--0-0-0--0-0-0--0-0-0--0-0-0--0-0-0-|
D#|-7--7-7-7--7-7-7--7-7-7--5/7-7--7-7-7--7-7-7--7-7-7--5/7-7--7-7-7--7-7-7--7-7-7--5/7-7-|
A#|-x--x-x-x--x-x-x--x-x-x--x-x-x--x-x-x--x-x-x--x-x-x--x-x-x--x-x-x--x-x-x--x-x-x--x-x-x-|
 F|-5--5-5-5--5-5-5--5-5-5--3/5-5--5-5-5--5-5-5--5-5-5--3/5-5--5-5-5--5-5-5--5-5-5--3/5-5-|
A#|-0--0-0-0--0-0-0--0-0-0--0-0-0--0-0-0--0-0-0--0-0-0--0-0-0--0-0-0--0-0-0--0-0-0--0-0-0-|

A#|-0-0-0--0-0-0--0-0-0-0-0-0-|
 F|-0-0-0--0-0-0--0-0-0-0-0-0-|
D#|-7-7-7--7-7-7--7-7-5-5-5-5-|
A#|-x-x-x--x-x-x--x-x-x-x-x-x-|
 F|-5-5-5--5-5-5--5-5-3-3-3-3-|
A#|-0-0-0--0-0-0--0-0---------|

A#|-0---0--0--0---0--0--0---0--0--0---0--0--0---0--0--0---0--0--0---0--0--0--0--0--|
 F|-0---0--0--0---0--0--0---0--0--0---0--0--0---0--0--0---0--0--0---0--0--0--0--0--|
D#|-10--10-10-10--10-10-10--10-10-10--10-10-10--10-10-10--10-10-10--10-10/12-12-12-|
A#|-8---8--8--8---8--8--8---8--8--8---8--8--8---8--8--8---8--8--8---8--8//10-10-10-|
 F|-8---8--8--8---8--8--8---8--8--8---8--8--8---8--8--8---8--8--8---8--8//10-10-10-|
A#|-8---8--8--8---8--8--8---8--8--8---8--8--8---8--8--8---8--8--8---8--8//10-10-10-|

A#|-0--0-0-0--0-0-0--0-0-0--0-0-0--0-0-0--0-0-0--0-0-0--0--0--|
 F|-0--0-0-0--0-0-0--0-0-0--0-0-0--0-0-0--0-0-0--0-0-0--0--0--|
D#|-9--9-9-9--9-9-9--9-9-9--9-9-9--9-9-9--9-9-9--9-9/10-10-10-|
A#|-7--7-7-7--7-7-7--7-7-7--7-7-7--7-7-7--7-7-7--7-7/8--8--8--|
 F|-7--7-7-7--7-7-7--7-7-7--7-7-7--7-7-7--7-7-7--7-7/8--8--8--|
A#|-7--7-7-7--7-7-7--7-7-7--7-7-7--7-7-7--7-7-7--7-7/8--8--8--|

A#|-0--0-0-0--0-0-0--0-0-0--0-0-0--0-0-0--0-0-0--0-0-0--0-0-0--0-0-0--0-0-0--0-0-0--0-0-0-|
 F|-0--0-0-0--0-0-0--0-0-0--0-0-0--0-0-0--0-0-0--0-0-0--0-0-0--0-0-0--0-0-0--0-0-0--0-0-0-|
D#|-7--7-7-7--7-7-7--7-7-7--5/7-7--7-7-7--7-7-7--7-7-7--5/7-7--7-7-7--7-7-7--7-7-7--5/7-7-|
A#|-5--5-5-5--5-5-5--5-5-5--3/5-5--5-5-5--5-5-5--5-5-5--3/5-5--5-5-5--5-5-5--5-5-5--3/5-5-|
 F|-5--5-5-5--5-5-5--5-5-5--3/5-5--5-5-5--5-5-5--5-5-5--3/5-5--5-5-5--5-5-5--5-5-5--3/5-5-|
A#|-5--5-5-5--5-5-5--5-5-5--3/5-5--5-5-5--5-5-5--5-5-5--3/5-5--5-5-5--5-5-5--5-5-5--3/5-5-|

A#|-0--0-0-0--0-0-0--0-0-0-0-0-0-|
 F|-0--0-0-0--0-0-0--0-0-0-0-0-0-|
D#|-7--7-7-7--7-7-7--7-7-7-7-7-7-|
A#|-5--5-5-5--5-5-5--5-5-5-5-5-5-|
 F|-5--5-5-5--5-5-5--5-5-5-5-5-5-|
A#|-5--5-5-5--5-5-5--5-5-5-5-5-5-|

Fill 1
A#|-----------------------------------------------------------------|
 F|-----------------------------------------------------------------|
D#|-----------------------------------------------------------------|
A#|-----------------------------------------------------------------|
 F|-----------------5-----------------------5-----------------------|
A#|-0-1-2-3-0-1-2-3---3-2-1-0-1-2-3-0-1-2-3---3-2-1-0-1-2-3-0-1-2-3-|

Play Riff 1 x1   "Fading out, just to end it..."
Play Riff 2 x1   "Travel back to where you're nothing..."
Play Riff 3 x1   "If I would have ever..."

Solo rhythm
A#|--------------------------------------|
 F|--------------------------------------|
D#|--------------------------------------|
A#|--------------------------------------|---------------------------------------------------|
 F|-0-0-0--0--0-0-0-0----0-0--0--0-0-0-0-|                                                   |
A#|-0-0-0--0--0-0-0-0----0-0--0--0-0-0-0-|                                                   |
    * * *  *  * * * *    * *  *  * * * *                                                     |
                                                                                             x2
A#|--------------------------------------------------------------------------------|         |
 F|--------------------------------------------------------------------------------|         |
D#|--------------------------------------------------------------------------------|         |
A#|--------------------------------------------------------------------------------|---------|
 F|-0-0-0--0--0-0-0-0----0-0--0--0-------------------------------------------------|
A#|-0-0-0--0--0-0-0-0----0-0--0--0-8-8-8-8-8-8-5-5-5-5-5-5-1-1-1-1-1-1-1-3b-1-0-3b-|
    * * *  *  * * * *    * *  *  *

A#|-----------------------------------------------------------------------------|
 F|-----------------------------------------------------------------------------|
D#|-----------------------------------------------------------------------------|
A#|-----------------------------------------------------------------------------|
 F|-0--0--0--0--0--0--0--0-------------1-0--0--0--0--0--0--0--0---------------1-|
A#|-0--0--0--0--0--0--0--0-1-3-0-3-2-0---0--0--0--0--0--0--0--0-1-3-0-3-2-0-2---|
    *  *  *  *  *  *  *  *               *  *  *  *  *  *  *  *

A#|--------------------------------------------------------------------|
 F|--------------------------------------------------------------------|
D#|--------------------------------------------------------------------|
A#|--------------------------------------------------------------------|
 F|-0--0--0--0--0--0--0--0---------------0--0--0--0--0-----------------|
A#|-0--0--0--0--0--0--0--0-1-3-0-3-2-0-2-0--0--0--0--0-1-3-0-3-2-0-2-0-|
    *  *  *  *  *  *  *  *               *  *  *  *  *

Solo
A#|---------------------------------------------------------------------------------12----14----14b15~-|
 F|-8/10~--8h10p8-7\5-7-7b8-7--5-3/5-8/10~--8h10p8---8-10-10/12~-10-8------13----------------12--------|
D#|------------------------------------------------9-------------------/14----14-12----12--------------|
A#|----------------------------------------------------------------------------------------------------|
 F|----------------------------------------------------------------------------------------------------|
A#|----------------------------------------------------------------------------------------------------|

A#|-14p12----12--------12p10-------14p12-------15p12-------17p15-------15p12-------14p12-------|
 F|-------15----15b17~-------15p12-------15p12-------15p12-------17p15-------15p12-------15p12-|
D#|--------------------------------------------------------------------------------------------|
A#|--------------------------------------------------------------------------------------------|
 F|--------------------------------------------------------------------------------------------|
A#|--------------------------------------------------------------------------------------------|

A#|-/17p15-------17p15-------17b19~--17/12-12h15p12----12-----------------------|
 F|--------17p15-------17p15------------------------15----15-12-15-12-13-13/17~-|
D#|-----------------------------------------------------------------------------|
A#|-----------------------------------------------------------------------------|
 F|-----------------------------------------------------------------------------|
A#|-----------------------------------------------------------------------------|

A#|--------10-----0--0--0---0--0--0--0--0---0--0--0----------------|
 F|-10--8------7-----5-/7---8--8--8--8--10--7--7--7--8-7-5-7-----8-|
D#|----------------------------------------------------------5/7---|
A#|----------------------------------------------------------------|
 F|----------------------------------------------------------------|
A#|----------------------------------------------------------------|

A#|-0--0--0--0--0--0--0---0---------------7h8p7--0---0---0---0---0---0---0---0---------------0-------|
 F|-8--8--8--8--7--7--10--10--10-8-7-8-10--------12--12--13--12--10--10--12--12--13-12-10-12---10h12-|
D#|--------------------------------------------------------------------------------------------------|
A#|--------------------------------------------------------------------------------------------------|
 F|--------------------------------------------------------------------------------------------------|
A#|--------------------------------------------------------------------------------------------------|

A#|----------15--17------17--19--22--22b24~-------22b24~-|
 F|-/15--17----------15----------------------------------|
D#|------------------------------------------------------|
A#|------------------------------------------------------|
 F|------------------------------------------------------|
A#|------------------------------------------------------|

Play Riff 3 x1   "If I would have ever..."

Ending
A#|-----------------------------------------------------------------------------|
 F|-----------------------------------------------------------------------------|
D#|-----------------------------------------------------------------------------|
A#|-----------------------------------------------------------------------------|
 F|-0--0--0--0--0--0--0--0-------------1-0--0--0--0--0--0--0--0---------------1-|
A#|-0--0--0--0--0--0--0--0-1-3-0-3-2-0---0--0--0--0--0--0--0--0-1-3-0-3-2-0-2---|
    *  *  *  *  *  *  *  *               *  *  *  *  *  *  *  *

A#|----------------------------------------------------------------------------|
 F|----------------------------------------------------------------------------|
D#|----------------------------------------------------------------------------|
A#|----------------------------------------------------------------------------|
 F|-0--0--0--0--0--0--0--0---------------0-0--0-0--0-0--0-0--0-----------------|
A#|-0--0--0--0--0--0--0--0-1-3-0-3-2-0-2-0-0--0-0--0-0--0-0--0-1-3-0-3-2-0-2-0-|
    *  *  *  *  *  *  *  *               * *  * *  * *  * *  *

Enjoy!!
 
Добавлено: 21.04.2016
Другие материалы по этой песне:
  • Аккорды и текст

Страница создана 21.04.2016
http://primanota.ru/sevendust/kill-flaw-chords.htm
Привет, Гость.
Предлагаем пройти революционный курс по гитаре.
Подарок от PrimaNota.Ru, забирай!