PrimaNota.ru - самый крупный в мире бесплатный архив песенных текстов, аккордов, табулатур и нот


Sevendust - Kill The Flaw (album) - таба, видео

Регистрация Запомнить меня
Войти через:  Facebook Google Twitter Vk Yandex Mail.ru

Sevendust - Kill The Flaw (album) - таба, видео

Печатать
Просмотров: 91
Sevendust: Kill The Flaw (Full Album)

Transcribed by: mysticguitar77

Facebook: https://www.facebook.com/MysticGuitar77
YouTube Channel: https://www.youtube.com/user/MysticGuitar77

Date last modified: November 1, 2015

Tracklist/tunings:
1. Thank You              (A# F A# D# F A#)
2. Death Dance            (G F A# D# G C)
3. Forget                 (G F A# D# G C)
4. Letters                (B F# B E F# B)
5. Cease And Desist       (A# F A# D# F A#)
6. Not Today              (G F A# D# G C)
7. Chop                   (G# F# B E F# G#)
8. Kill The Flaw          (A# F A# D# F A#)
9. Silly Beast            (G F A# D# G C)
10. Peace And Destruction (B F# B E F# B)
11. Torched               (B F# B E F# B)
12. Slave The Prey        (A# F A# D# F A#)

***************************************************************************************************************
                                                 1. THANK YOU
***************************************************************************************************************

Riff 1
 C|---------------------------------------------------------------------------|
 G|---------------------------------------------------------------------------|
D#|---------------------------------------------------------------------------|
A#|---------------------------------------------------------------------------|
 F|-0-0-0-0-0-0-0-0-0-----------------0-0-0-0-0-0-----------------0-0-0-0-0-0-|
A#|-0-0-0-0-0-0-0-0-0--0-5-3-0-1-0-1b-0-0-0-0-0-0--0-5-3-0-1-0-1b-0-0-0-0-0-0-|
    * * * * * * * * *  * * * * * *    * * * * * *  * * * * * *    * * * * * *

 C|--------------------------------------------------|
 G|--------------------------------------------------|
D#|---------------13-13-13-13-13-13-13-13-13---8-8-8-|
A#|---------------x--x--x--x--x--x--x--x--x----x-x-x-|
 F|---------------11-11-11-11-11-11-11-11-11---6-6-6-|
A#|-0-5-3-0-1-0-1----------------------------0-------|
    * * * * * * *

 C|-----------------------------------------------------------------------|
 G|-----------------------------------------------------------------------|
D#|-----------------------------------------------------------------------|
A#|-----------------------------------------------------------------------|
 F|-0-0-0-0-0-0-0-0-0-----------------0-0-0-0-0-----------------0-0-0-0-0-|
A#|-0-0-0-0-0-0-0-0-0--0-5-3-0-1-0-1b-0-0-0-0-0--0-5-3-0-1-0-1b-0-0-0-0-0-|
    * * * * * * * * *  * * * * * *    * * * * *  * * * * * *    * * * * *

 C|-----------------------------------------------------|
 G|-----------------------------------------------------|
D#|---------------13-13-13-13-13-13-13-13-13---17-17-17-|
A#|---------------x--x--x--x--x--x--x--x--x----x--x--x--|
 F|---------------11-11-11-11-11-11-11-11-11---15-15-15-|
A#|-0-5-3-0-1-0-1----------------------------0----------|
    * * * * * * *

Riff 2   "So help me to see..." (all palm-muted)
 C|-------------------------------------------------------------------------------------------------|
 G|-------------------------------------------------------------------------------------------------|
D#|-------------------------------------------------------------------------------------------------|
A#|-15-15-15-15-15-15-15-15-15-15-15-15-15-15-15-15-15-15-15-15-15-15-15-15-17-17-17-17-17-17-17-17-|
 F|-------------------------------------------------------------------------------------------------|
A#|-------------------------------------------------------------------------------------------------|

 C|-------------------------------------------------------------------------------------------------|
 G|-------------------------------------------------------------------------------------------------|
D#|-------------------------------------------------------------------------------------------------|
A#|-14-14-14-14-14-14-14-14-14-14-14-14-14-14-14-14-12-12-12-12-12-12-12-12-10-10-10-10-10-10-12-14-|
 F|-------------------------------------------------------------------------------------------------|
A#|-------------------------------------------------------------------------------------------------|

 C|-------------------------------------------------------------------------------------------------|
 G|-------------------------------------------------------------------------------------------------|
D#|-------------------------------------------------------------------------------------------------|
A#|-15-15-15-15-15-15-15-15-15-15-15-15-15-15-15-15-12-14-15-15-15-15-15-15-17-17-17-17-17-17-17-17-|
 F|-------------------------------------------------------------------------------------------------|
A#|-------------------------------------------------------------------------------------------------|

 C|-------------------------------------------------------------------------------------------------|
 G|-------------------------------------------------------------------------------------------------|
D#|-------------------------------------------------------------------------------------------------|
A#|-14-14-14-14-14-14-14-14-14-14-14-14-14-14-14-14-12-12-12-12-12-12-12-12-10-10-10-10-10-10-10-10-|
 F|-------------------------------------------------------------------------------------------------|
A#|-------------------------------------------------------------------------------------------------|

Play Riff 2 x2   "On my own, forgive me now we know..."
Play Riff 1 x1   "Just wait, feel it coming now..."

Riff 3
 C|-----------------------------------------------------------------------|
 G|-----------------------------------------------------------------------|
D#|-10p9----9-------------------------------------------------------------|
A#|------12---12-0-8/10\8-0-8\7-0-7\3-0-5p3-5/7-0-0-8\7-0-7\3-0-3h5p3\2h3-|
 F|-----------------------------------------------------------------------|
A#|-----------------------------------------------------------------------|
         *  * *  *        *     *     *         * *     *     *

Riff 4   "So thanks for coming around..."
 C|----------------------------------------------------------------|
 G|----------------------------------------------------------------|
D#|----------------------------------------------------------------|
A#|-0------------8-------5------0--------------8-------5-----------|
 F|-0------------8-------5------0--------------8-------5-----------|
A#|-0------------8-------5------0--------------8-------5---8~--1~--|

Fill 1
 C|------------------------------|
 G|------------------------------|
D#|------------------------------|
A#|------------------------------|
 F|-0-0-0-0-0-0-0-0-0------------|
A#|-0-0-0-0-0-0-0-0-0--0-5-3-0-1-|
    * * * * * * * * *  * * * * *

Play Riff 2 x2   "Been holding on so long..."
Play Riff 1 x0.5 "The time has come..."
Play Riff 3 x1
Play Riff 4 x1   "So thanks for coming around..."

Riff 4 cont'd   
 C|----------------------------------------------------------|
 G|----------------------------------------------------------|
D#|----------------------------------------------------------|
A#|-0-----------8-------5------0--------------8-------5--7-1-|
 F|-0-----------8-------5------0--------------8-------5--7-1-|
A#|-0-----------8-------5------0--------------8-------5--7-1-|
                                                         *

Play Riff 3 x2
Play Riff 4 x2   "So thanks for coming around..."
                 (first time through, strum each chord instead of letting them ring out)
Play Riff 1 x1

***************************************************************************************************************
                                                 2. DEATH DANCE
***************************************************************************************************************

Riff 1
 C|----------------------0---0-----|
 G|--------------------0---------0-|
D#|--------------------------------|
A#|--------------------------------| x3
 F|--------------------------------|
 G|-0-12b-10-12-12-0-1-----3---1---|

 C|----------------------0----------|
 G|--------------------0-----0------|
D#|---------------------------------|
A#|---------------------------------|
 F|---------------------------------|
 G|-0-12b-10-12-12-0-1-----3---/8-8-|

Riff 2   "Plastic scars..."
 C|------------------------------------------------------------------------|
 G|----------------------------------------------------------------------0-|
D#|------------------------------------------------------------------------|
A#|--------------------------------------------------------------------7---|
 F|------------12\---------------------------------------------------------|
 G|-0--0--0--0-10\--0-0--12-10-0-12-10-0-12-10-0--0--0--0-1b--0-0--0-0-----|
                         *  *  * *  *  * *  *  

 C|--------------------------------------------------------------------|
 G|--------------------------------------------------------------------|
D#|---------12---12---------11-9\8---------9-9/11-11/12-12/14-14\12-12-|
A#|---------x----x----------x--x-x---------x-x-x--x--x--x--x--x--x--x--|
 F|---------10---10---------9--7\6---------7-7/9--9//10-10/12-12\10-10-|
 G|-0--0--0----0----0--0--0--------0--0--0-----------------------------|

Riff 3   "You couldn't last so long..."
 C|--------------------------------|
 G|----------------------0---0-----|
D#|--------------------------------|
A#|--------------------2---------2-| x3
 F|--------------------------------|
 G|-0-12b-10-12-12-0-1-----3---1---|

 C|---------------------------------|
 G|----------------------0---0------|
D#|---------------------------------|
A#|--------------------2------------|
 F|---------------------------------|
 G|-0-12b-10-12-12-0-1-----3---/8-8-|

Riff 4   "So reach down far below..."
 C|-----------------------------------------------------------------------|
 G|-----------------------------------------------------------------------|
D#|-----------------------------------------------------------------------|
A#|-----------------------------------------------------------------------|
 F|-10-10-10-7-7-7-7-2-2-2-2-5-5-5-5-5-10-10-10-7-7-7-7-2-2-2-2-9-9-9-9-9-|
 G|-8--8--8--5-5-5-5-0-0-0-0-3-3-3-3-3-8--8--8--5-5-5-5-0-0-0-0-7-7-7-7-7-|

 C|--------------------------------------------------------------------|
 G|--------------------------------------------------------------------|
D#|--------------------------------------------------------------------|
A#|--------------------------------------------------------------------|
 F|-10-10-10-7-7-7-7-2-2-2-2-5-5-5-5-5-4-4-4-4-4-4-4-4-4-5-5-5-5-7-5---|
 G|-8--8--8--5-5-5-5-0-0-0-0-3-3-3-3-3-2-2-2-2-2-2-2-2-2-3-3-3-3-5-3-0-|

Fill 1
 C|-------------------------------------------------------------------|
 G|----------------------0---0--------------------------0-------------|
D#|-------------------------------------------------------------------|
A#|--------------------2---------2--------------------2---------------|
 F|-------------------------------------------------------------------|
 G|-0-12b-10-12-12-0-1-----3---1---0-12b-10-12-12-0-1-----3-1-1-1-1-1-|
                                                            * * * *

Play Riff 2 x1   "Constant thoughts..."
Play Riff 3 x1   "You're choking on the dirt..."
Play Riff 4 x2   "So reach down far below..."

Fill 2   "I'm gonna dance with the dead..."
 C|----------12----12----12----14----0--0--0--0--0-----------12----12----12----14----0--0--0---0---0---|
 G|-15-15-15----15----15----15----15-14-14-14-12-12-15-15-15----15----15----15----15-11-11-11b-11b-11b-|
D#|----------------------------------------------------------------------------------------------------|
A#|----------------------------------------------------------------------------------------------------|
 F|----------------------------------------------------------------------------------------------------|
 G|----------------------------------------------------------------------------------------------------|

Riff 5 
 C|----------------------------------------------------------------------------------------------------------|
 G|----------------------------------------------------------------------------------------------------------|
D#|---12\---------11h12---12\---12p11----11---12\---------11h12-------14-12-11-12-11----11-------------------|
A#|---11\---12h14---------11\---------14------11\---12h14-------12-11----------------14----14-11-12-11-12----|
 F|-------------------------------------------------------------------------------------------------------14-|
 G|-0-----0-------------0-----0-------------0-----0----------------------------------------------------------|
    *     *             *     *             *     *             *  *

 C|---------------------------------------------------------------------------14b15-14~-|
 G|--------------------------------------------------------------------10--12-----------|
D#|---12\---------11h12---12\---12p11----11---12\---------11h12-------------------------|
A#|---11\---12h14---------11\---------14------11\---12h14-------11--12------------------|
 F|-------------------------------------------------------------------------------------|
 G|-0-----0-------------0-----0-------------0-----0-------------------------------------|
    *     *             *     *             *     *

Play Riff 4 x2   "So reach down far below..."
Play Riff 1 x1   "I'm gonna dance with the dead!!"

***************************************************************************************************************
                                                  3. FORGET
***************************************************************************************************************

Intro
 C|----------------------------------------------------------|
 G|----------------------------------------------------------|
D#|----------------------------------------------------------|
A#|----------------------------------------------------------|
 F|----------------------------------------------------------|
 G|-0-0-0-0--0-0-0-0-0-0--0-0-0-0--0-0-0-0-0-0--0-0-0--0-0-0-|

Riff 1   "Swallow your pride and denial..."
 C|------------------------------------------------------------------------------------------------|
 G|------------------------------------------------------------------------------------------------|
D#|------------------------------------------------------------------------------------------------|
A#|------------------------------------------------------------------------------------------------|
 F|----------------------------------------------------------10-10-10-10---10-10-10-10-10-10-9-9-9-|
 G|-0-0-0-0--0-0-0-0-0-0--0-0-0-0--0-0-0-0-0-0--0-0-0--0-0-0-8--8--8--8--0-7--7--7--7--7--7--7-7-7-|

 C|-------------------------------------------------------------------|
 G|-------------------------------------------------------------------|
D#|-------------------------------------------------------------------|
A#|-------------------------------------------------------------------|
 F|-----------------------------10-10-10-10---10-10-10-10-10-10-9-9-9-|
 G|-0-0-0-0--0-0-0-0-0-0--0-0-0-8--8--8--8--0-7--7--7--7--7--7--7-7-7-|

Play Riff 1 x2   "Empathy is wasted as we expire..."

Riff 2
 C|------------------------------------------|
 G|------------------0-----------------------|
D#|--------------------------0---------------|
A#|------------------------4---4-------------|
 F|------------------------------------------|
 G|-0--0--0--0--0--4---4-3-------8-0-0-0-0-7-|
                                   * * * *

Riff 3   "Cut the ties that burn you to the core..."
 C|-0----------0----------0----------0----------0-------------|
 G|-15---------15---------15---------15---------15------------|
D#|-18---------18---------18---------18---------18------------|
A#|------------------------------------------------x-x--x-x-x-|
 F|------------------------------------------------x-x--x-x-x-|
 G|----0-0-0-0----0-0-0-0----0-0-0-0----0-0-0-0----x-x--x-x-x-|
       * * * *    * * * *    * * * *    * * * *

 C|-0----------0----------0----------0----------0------0--0--0--0--|
 G|-15---------15---------15---------15---------15-----0--0--0--0--|
D#|-18---------18---------18---------18---------18-----12-12-12-12-|
A#|----------------------------------------------------------------|
 F|----------------------------------------------------------------|
 G|----0-0-0-0----0-0-0-0----0-0-0-0----0-0-0-0----0-0-------------|
       * * * *    * * * *    * * * *    * * * *    * *

Play Riff 3 x2   "We decide where we go from here..."

Riff 4   "So taste these words like fire..."
 C|-------------------------------------------------------------------------------|
 G|-------------------------------------------------------------------------------|
D#|-------------------------------------------------------------------------------|
A#|-------------------------------------------------------------------------------|
 F|-2--2--2-2-2-2-2-2-9--9--9-9-9-9-9-9-10--10--10-10-10-10-10-10-7--7--7-7-7-7-9-|
 G|-0--0--0-0-0-0-0-0-7--7--7-7-7-7-7-7-8---8---8--8--8--8--8--8--5--5--5-5-5-5-7-|

 C|-------------------------------------------------------------------------------|
 G|-------------------------------------------------------------------------------|
D#|-------------------------------------------------------------------------------|
A#|-------------------------------------------------------------------------------|
 F|-2--2--2-2-2-2-2-2-9--9--9-9-9-9-9-9-10--10--10-10-10-10-10-10-7--7--7-7-7-7-5-|
 G|-0--0--0-0-0-0-0-0-7--7--7-7-7-7-7-7-8---8---8--8--8--8--8--8--5--5--5-5-5-5-3-|

Play Riff 4 x2   "The days we've lost are far behind..."
Play Riff 1 x2   "With empty eyes you run from a ghost..."
Play Riff 2 x1
Play Riff 3 x2   "Do you hear them crying out for more..."
Play Riff 4 x2   "So taste these words like fire..."

Solo rhythm
 C|------------------------------------------------|
 G|------------------------------------------------|
D#|-12\---12\--------------------------------------|
A#|-11\---11\--------------------------------------|--------------|
 F|-10\---10\--------------------------------------|              |
 G|-----0-----0--0-0-0-0--0--0-0-0-0--0--0-0-0-0-0-|              |
                                                                  | x2
 C|----------------------------------------------|                |
 G|----------------------------------------------|                |
D#|-12\----12\----------7---------7--------------|----------------|
A#|-11\----11\----------6---------6--------------|
 F|-10\----10\----------5---------5--------------|
 G|-----0------0--0-0-0---0-0-0-0---0--0-0-0-0-0-|

 C|-0----------0----------0----------0----------0-------------|
 G|-15---------15---------15---------15---------15------------|
D#|-18---------18---------18---------18---------18------------|
A#|------------------------------------------------x-x--x-x-x-|
 F|------------------------------------------------x-x--x-x-x-|
 G|----0-0-0-0----0-0-0-0----0-0-0-0----0-0-0-0----x-x--x-x-x-|
       * * * *    * * * *    * * * *    * * * *

 C|-0----------0----------0----------0----------0----------------------|
 G|-15---------15---------15---------15---------15---------------------|
D#|-18---------18---------18---------18---------18---------------------|
A#|--------------------------------------------------------------------|
 F|------------------------------------------------------------------\-|
 G|----0-0-0-0----0-0-0-0----0-0-0-0----0-0-0-0----0-0-0-0-0-0-0-----\-|
       * * * *    * * * *    * * * *    * * * *    * * * * * * *

Solo
 C|-----------------------------------------------------------------------------|
 G|-10b12---7~--5h7-7b8-19*--5h7p5-------12--14b15---17-----------12--------14\-|
D#|--------------------------------8--9------------------14-16----x---------x---|
A#|------------------------------------------------------------12-12--12/14-14\-|
 F|-----------------------------------------------------------------------------|
 G|-----------------------------------------------------------------------------|
                        ^ tap harmonic on 19th fret while holding the bend

 C|-12b13r12b13--15----14----12--------12----------------------------|
 G|-----------------15----14----12--15----15-14-15-14-12----12-x-12~-|
D#|------------------------------------------------------14----------|
A#|------------------------------------------------------------------|
 F|------------------------------------------------------------------|
 G|------------------------------------------------------------------|

 C|----/9----/10------------------------------19--21h22----|
 G|---------------8------8--10-h12--------/19-----------19-|
D#|-/7----/9---------11------------11~---------------------|
A#|--------------------------------------------------------|
 F|--------------------------------------------------------|
 G|--------------------------------------------------------|

 C|-14h15p14----14----------------------------------10~----12h14-----|
 G|----------17----17-15-17-15-17/19-17-15-17-15--14--14~--------12~-|
D#|------------------------------------------------------------------|
A#|------------------------------------------------------------------|
 F|------------------------------------------------------------------|
 G|------------------------------------------------------------------|

 C|-14p12-------15p12-------17p13-------19p15-------19/22-22b23-22~-|
 G|-------14p12-------15p12-------17p13-------19p15-----------------|
D#|-----------------------------------------------------------------|
A#|-----------------------------------------------------------------|
 F|-----------------------------------------------------------------|
 G|-----------------------------------------------------------------|

 C|----21-------19~-/21~-/22~-24---24b25~------|
 G|-19----19-17--------------------------------|
D#|--------------------------------------------|
A#|--------------------------------------------|
 F|-----------------------------------------\\-|
 G|-----------------------------------------\\-|

Riff 5   "So taste these words like fire..."
 C|------------------------------------------|
 G|------------------------------------------|
D#|------------------------------------------|
A#|------------------------------------------|
 F|-2~---2-2-9~---9-9-10\-7~--7/9-7---/12-12-|
 G|-0~---0-0-7~---7-7-8\\-5~--5/7-5---/10-10-|

Play Riff 5 x2   "The burden is gone..."
Play Riff 4 x2   "So taste these words like fire..."
Play Riff 3 x1   (gets cut short to end song and a big whammy dive bomb)

***************************************************************************************************************
                                                   4. LETTERS
***************************************************************************************************************

Riff 1   "If you could see inside of me..."
 B|-------------------------------------------------------------------------------------------------|
F#|-------13-------13----13-------13-------13----13-------13-------13----13-------13-------------13-|
 E|-------14-------14----14-------14-------14----14-------14-------14----14-------14-------12h14----|
 B|-12-12-12-12-12-12-12-12-12-12-12-12-12-12-12-12-12-12-12-12-12-12-12-12-12-12-12-12-12----------| x2
F#|-------------------------------------------------------------------------------------------------|
 B|-------------------------------------------------------------------------------------------------|
    *  *     *  *     *     *  *     *  *     *     *  *     *  *     *     *  *     *  *

 B|-------------------------------------------------------------------------------------------------|
F#|-13----13-------13----13-------13-------13----13-------13-------13----13-------13-------------13-|
 E|-14----14-------14----14-------14-------14----14-------14-------14----14-------14-------12h14----|
 B|-12-12-12-12-12-12-12-12-12-12-12-12-12-12-12-12-12-12-12-12-12-12-12-12-12-12-12-12-12----------|
F#|-------------------------------------------------------------------------------------------------|
 B|-------------------------------------------------------------------------------------------------|
       *     *  *     *     *  *     *  *     *     *  *     *  *     *     *  *     *  *

 B|----------------------------------------------------------------------------------------------|
F#|-13----13-------13----13-------13-------13----13-------13-------13----13-13-13-13-13-12-12-12-|
 E|-14----14-------14----14-------14-------14----14-------14-------14----14-14-14-14-14-12-12-12-|
 B|-12-12-12-12-12-12-12-12-12-12-12-12-12-12-12-12-12-12-12-12-12-12-12-12-12-12-12-12-12-12-12-|
F#|----------------------------------------------------------------------------------------------|
 B|----------------------------------------------------------------------------------------------|
       *     *  *     *     *  *     *  *     *     *  *     *  *     *

Fill 1   "And see the light of day..." (clean, let all notes ring out)
 B|-------------------------------0-|
F#|----0-------0--------------------|
 E|-9------10------0----------------|
 B|-------------------7--7b8r7------|
F#|---------------------------------|
 B|---------------------------------|

Riff 2   "I write a letter just to say..."
 B|-0--0--0--0--0--0--0--0--0--0--0--0--0--0--0--0--0-0-0-0-0-0-0-0-0-0-0-0-0-0-0-0-|
F#|-0--0--0--0--0--0--0--0--0--0--0--0--0--0--0--0--0-0-0-0-0-0-0-0-0-0-0-0-0-0-0-0-|
 E|-10-10-10-10-10-10-10-10-10-10-10-10-10-10-10-10-5-5-5-5-5-5-5-5-5-5-5-5-5-5-5-5-|
 B|-x--x--x--x--x--x--x--x--x--x--x--x--x--x--x--x--3-3-3-3-3-3-3-3-3-3-3-3-3-3-3-3-|
F#|-8--8--8--8--8--8--8--8--8--8--8--8--8--8--8--8--3-3-3-3-3-3-3-3-3-3-3-3-3-3-3-3-|
 B|-0--0--0--0--0--0--0--0--0--0--0--0--0--0--0--0--3-3-3-3-3-3-3-3-3-3-3-3-3-3-3-3-|

 B|-0-0-0-0-0-0-0-0-0-0-0-0-0-0-0-0-------------------------------------------------|
F#|-0-0-0-0-0-0-0-0-0-0-0-0-0-0-0-0-------------------------------------------------|
 E|-7-7-7-7-7-7-7-7-7-7-7-7-7-7-7-7-8-8-8-10-10-10-12-12-12-12-12-12/14-14-14-14-14-|
 B|-5-5-5-5-5-5-5-5-5-5-5-5-5-5-5-5-x-x-x-x--x--x--x--x--x--x--x--x--x--x--x--x--x--|
F#|-5-5-5-5-5-5-5-5-5-5-5-5-5-5-5-5-6-6-6-8--8--8--10-10-10-10-10-10/12-12-12-12-12-|
 B|-5-5-5-5-5-5-5-5-5-5-5-5-5-5-5-5-------------------------------------------------|

 B|-0--0--0--0--0--0--0--0--0--0--0--0--0--0--0--0--0-0-0-0-0-0-0-0-0-0-0-0-0-0-0-0-|
F#|-0--0--0--0--0--0--0--0--0--0--0--0--0--0--0--0--0-0-0-0-0-0-0-0-0-0-0-0-0-0-0-0-|
 E|-10-10-10-10-10-10-10-10-10-10-10-10-10-10-10-10-5-5-5-5-5-5-5-5-5-5-5-5-5-5-5-5-|
 B|-x--x--x--x--x--x--x--x--x--x--x--x--x--x--x--x--3-3-3-3-3-3-3-3-3-3-3-3-3-3-3-3-|
F#|-8--8--8--8--8--8--8--8--8--8--8--8--8--8--8--8--3-3-3-3-3-3-3-3-3-3-3-3-3-3-3-3-|
 B|-0--0--0--0--0--0--0--0--0--0--0--0--0--0--0--0--3-3-3-3-3-3-3-3-3-3-3-3-3-3-3-3-|

 B|-0-0-0-0-0-0-0-0-0-0-0-0-0-0-0-0-0-0-0-0-0-0-0-0-0-0-0-0-0--0--0--0--|
F#|-0-0-0-0-0-0-0-0-0-0-0-0-0-0-0-0-0-0-0-0-0-0-0-0-0-0-0-0-0--0--0--0--|
 E|-7-7-7-7-7-7-7-7-9-9-9-9-9-9-9-9-7-7-7-7-7-7-7-7-9-9-9-9-9b-9b-9b-9b-|
 B|-5-5-5-5-5-5-5-5-7-7-7-7-7-7-7-7-x-x-x-x-x-x-x-x-x-x-x-x-x--x--x--x--|
F#|-5-5-5-5-5-5-5-5-7-7-7-7-7-7-7-7-5-5-5-5-5-5-5-5-7-7-7-7-7b-7b-7b-7b-|
 B|-5-5-5-5-5-5-5-5-7-7-7-7-7-7-7-7-0-0-0-0-0-0-0-0-0-0-0-0-0--0--0--0--|

Fill 2
 B|-0~~--15~---17\14~----------12----0--0--0--0--|
F#|-13~-----------------12\10-----10-13-13-13-13-|
 E|-14~------------------------------------------|
 B|----------------------------------------------|
F#|----------------------------------------------|
 B|----------------------------------------------|

Play Riff 1 x1   "I saw weakness..."
                  (strumming pattern changes slightly for the 2nd verse, listen to song for it)

Fill 3
 B|-------15----15----17\14>>>-|
F#|-15-17----17----17----------|
 E|----------------------------|
 B|----------------------------|
F#|----------------------------|
 B|----------------------------|
                         ^ whammy pedal pitch down

Play Riff 2 x1   "I write a letter just to say..."

Riff 3 - Guitar 1
 B|-------------------------|
F#|-------------------------|
 E|-------------------------|
 B|-3-1-0-1-----1-3-1-0-----|
F#|-3-1-0-1-0-0-1-3-1-0-0-0-|
 B|-3-1-0-1-0-0-1-3-1-0-0-0-|
            * *         * *

Play Riff 3 x4

Riff 3 - Guitar 2 (enters after you play above twice)
 B|--------------------------|
F#|--------------------------|
 E|-10-8-7-8\---8-10-8-7-----|
 B|-x--x-x-x----x-x--x-x-----|
F#|-8--6-5-6\-0-6-8--6-5-0-0-|
 B|-----------0----------0-0-|
              *          * *

Riff 4   "The rest of my life..."
 B|-----------------------------------------------------------------------|
F#|-----------------------------------------------------------------------|
 E|-----------------------------------------------------------------------|
 B|-0-0-0-0--------8-8-8-8\--------5-5-5-5\-------3-3-3-3-x-x-3-3-3-3-3-3-|
F#|-0-0-0-0--------8-8-8-8\--------5-5-5-5\-------3-3-3-3-x-x-1-1-1-1-1-1-|
 B|-0-0-0-0--------8-8-8-8\--------5-5-5-5\-------3-3-3-3-x-x-1-1-1-1-1-1-|

Play Riff 4 x2   "I don't give a damn..."

Fill 4 (light distortion)
 B|-----------------------------------------------------|
F#|-----------------------------------------------------|
 E|-----------------------------------------------------|
 B|-------------------------------------------------2-2-|
F#|-5-5-5-5-5-5-5-5-8-8-8-8-8-8-8-8-7-7-7-7-7-7-7-7-0-0-|
 B|-0-0-0-0-0-0-0-0-0-0-0-0-0-0-0-0-0-0-0-0-0-0-0-0-----|
    * * * * * * * * * * * * * * * * * * * * *

Play Riff 2 x1.5   "I write a letter just to say..."
                   (first half gets repeated twice this time)
Play Riff 3 x4 (Guitar 1)
Play Riff 3 x2 (Guitar 2)

***************************************************************************************************************
                                               5. CEASE AND DESIST
***************************************************************************************************************

Riff 1   "The story of you..." (clean, let all notes/chords ring out)
A#|-----0-------0-----0---0---------5-----5-----3---------|
 F|-7h8---8---8-------0---0-------8-8---8-8---7-7---5-7h8-|
D#|-----------------7-------------------------------------|
A#|-0-----------------------------------------------------| strum chords with an upstroke
 F|-------------------------------------------------------|
A#|---------0-----7-----8---10\-5-----5-----3-----2-------|

Play Riff 1 x4   "A man truly dies before the grave..."

Riff 2   "Blood red, you said..." (distortion)
A#|------------------------------------------------------------------------------------|
 F|------------------------------------------------------------------------------0-----|
D#|--------------------------------------------------------------------------------3---|
A#|-3-3-0--0-3-7-0------7----------2h3p2---2h3-------3-3-0------7----------2h3h5-----5-|
 F|-3-3-0--0-3-3-0-------------3h5-------3-----------3-3-0-------------3h5-------------|
A#|-3-3-0--0-3-3-0--0-3---0--0-----------------0>>>--3-3-0--0-3---0--0-----------------|
                             *                 ^                     *
                                               whammy down an octave

A#|----------------------------------------------------------------------------|
 F|--------------------------------------------------------------------------0-|
D#|----------------------------------------------------------------------------|
A#|-0--0-3-3-0------7----------2h3p2---2h3-------3-3-0------7----------2h3h5---|
 F|-0--0-3-3-0-------------3h5-------3-----------3-3-0-------------3h5---------|
A#|-0--0-3-3-0--0-3---0--0-----------------0>>>--3-3-0--0-3---0--0-------------|
                         *                                       *

A#|------------------------------------------------|
 F|------------------------------------------------|
D#|--------------------5-5-5-5-5-5-5-5-5-5-5-5-5-5-|
A#|-0--0-0-0-0-0-0-0-0-0-0-0-0-0-0-0-0-0-0-0-0-0-0-|
 F|-3--3-3-3-3-3-3-3-3-3-3-3-3-3-3-3-3-3-3-3-3-3-3-|
A#|------------------------------------------------|
       * * * * * * * * * * * *

Riff 3   "So long, fair enough..."
A#|-------------------------0--0-0-0-0--------------------------------------------------------|
 F|-------------------------0--0-0-0-0--------------------------------------------------------|
D#|-------------------------4--4-4-4-4-5--5-5-5-5-5--5-5-5-5-/12--12-12-12-12-12--12-12-12-12-|
A#|-0-0-0---0-0-0---0-0-0---2--2-2-2-2-3--3-3-3-3-3--3-3-3-3-/10--10-10-10-10-10--10-10-10-10-|
 F|-0-0-0---0-0-0---0-0-0---3--3-3-3-3-3--3-3-3-3-3--3-3-3-3-/10--10-10-10-10-10--10-10-10-10-|
A#|-0-0-0---0-0-0---0-0-0---2--2-2-2-2-3--3-3-3-3-3--3-3-3-3-/10--10-10-10-10-10--10-10-10-10-|

A#|-------------------------0--0-0-0-0---------------------------------------------|
 F|-------------------------0--0-0-0-0---------------------------------------------|
D#|-------------------------4--4-4-4-4-5--5-5-5-5-5--5-5-5-5-7--7-7-7-7-9--9-9-9-9-|
A#|-0-0-0---0-0-0---0-0-0---2--2-2-2-2-3--3-3-3-3-3--3-3-3-3-5--5-5-5-5-7--7-7-7-7-|
 F|-0-0-0---0-0-0---0-0-0---3--3-3-3-3-3--3-3-3-3-3--3-3-3-3-5--5-5-5-5-7--7-7-7-7-|
A#|-0-0-0---0-0-0---0-0-0---2--2-2-2-2-3--3-3-3-3-3--3-3-3-3-5--5-5-5-5-7--7-7-7-7-|

Fill 1   "But the bastards, here they come again..."
A#|---------------------------------------------|
 F|---------------------------------------------|
D#|-5--5-5-5-5-7--7-7-7-7-6--6-6-6-6-9--9-9-9-9-|
A#|-3--3-3-3-3-5--5-5-5-5-x--x-x-x-x-7--7-7-7-7-|
 F|-3--3-3-3-3-5--5-5-5-5-4--4-4-4-4-7--7-7-7-7-|
A#|-3--3-3-3-3-5--5-5-5-5------------7--7-7-7-7-|

Play Riff 1 x2   "A life line abused, cut the cord..."
Play Riff 2 x1   "Blood red, you said..."
Play Riff 3 x2   "So long, fair enough..."

Riff 4   "You throw yourself in line again..."
A#|-0---0--0--0-0--0-0--0-0-0-0-0-0--0-0-0-0-0-0-0-0-0-0-0-0--0-0-0-0-0--0-0-0-0-0--0-0-0-0-0--0-0-0-0-|
 F|-10--10-10-8h10p8-7--7-7-7h8p7-5--5-5-5-5-5\3-3-3-3-3-3/5--5-5-5-5-5--5-5-5-5-0--0-0-0-0-0--0-0-0-0-|
D#|------------------------------------------------------------------------------2--2-2-2-2-2--2-2-2-2-|
A#|------------------------------------------------------------------------------0--0-0-0-0-0--0-0-0-0-|
 F|------------------------------------------------------------------------------0--0-0-0-0-0--0-0-0-0-|
A#|------------------------------------------------------------------------------0--0-0-0-0-0--0-0-0-0-|

A#|-0---0--0--0-0--0-0--0-0-0-0-0-0--0-0-0-0--0--0--0--0--0--0--0--0--0--0--|
 F|-10--10-10-8h10p8-7--7-7-7h8p7-5--5-5-5-5-/10-10-10-10-10/13-13-13-13-12-|
D#|-------------------------------------------------------------------------|
A#|-------------------------------------------------------------------------|
 F|-------------------------------------------------------------------------|
A#|-------------------------------------------------------------------------|

A#|-0--0--0--0--0---0--0--0--0--0---0--0--0--0--|
 F|-12-12-12-12-12--12-12-12-12-12--12-12-12-12-|
D#|---------------------------------------------|
A#|---------------------------------------------|
 F|---------------------------------------------|
A#|---------------------------------------------|

Riff 5 (light distortion)
A#|-10-----10---4-----4---4------4---4------4---|
 F|----9----------3----------3----------3-------|
D#|---------------------------------------------|
A#|-0----0----0-0---0---0------0---0------0---0-| x3.5
 F|---------------------------------------------|
A#|---------------------------------------------|

A#|---------0----|
 F|-9h10/12---12-|
D#|--------------|
A#|--------------|
 F|--------------|
A#|--------------|

Fill 2
A#|---------------------x-x---------------|
 F|---------------------x-x---------------|
D#|---------------------x-x---------------|
A#|-0--0--0-0-0-0-------x-x-0--0--0-0-0-0-|
 F|-0--0--0-0-0-0-------x-x-0--0--0-0-0-0-|
A#|-0--0--0-0-0-0-------x-x-0--0--0-0-0-0-|
    *  *  * * * *           *  *  * * * *

Solo rhythm
A#|--------------------------------------------------------------------------------|
 F|--------------------------------------------------------------------------------|
D#|-14--14-14-14-14-14\12--12-12-12-12-12\10--10-10-10-10-10/12--12-12-12-12-12/14-|
A#|-x---x--x--x--x--x--x---x--x--x--x--x--x---x--x--x--x--x--x---x--x--x--x--x--x--| x2
 F|-12--12-12-12-12-12\10--10-10-10-10-10\8---8--8--8--8--8//10--10-10-10-10-10/12-|
A#|--------------------------------------------------------------------------------|

A#|-----------------------x-x--x--x-x------------------0~-|
 F|-----------------------x-x--x--x-x------------------0~-|
D#|-----------------------x-x--x--x-x------------------2~-|
A#|----0--0--0-0-0-0------x-x--x--x-x-0--0--0-0-0-0----0~-|
 F|-\\-0--0--0-0-0-0------x-x--x--x-x-0--0--0-0-0-0----0~-|
A#|-\\-0--0--0-0-0-0------x-x--x--x-x-0--0--0-0-0-0----0~-|
       *  *  * * * *                  *  *  * * * *    ^ strum with upstroke

A#|--------------------------------------------------------------------------------|
 F|--------------------------------------------------------------------------------|
D#|-14--14-14-14-14-14\12--12-12-12-12-12\10--10-10-10-10-10/12--12-12-12-12-12/14-|
A#|-x---x--x--x--x--x--x---x--x--x--x--x--x---x--x--x--x--x--x---x--x--x--x--x--x--|
 F|-12--12-12-12-12-12\10--10-10-10-10-10\8---8--8--8--8--8//10--10-10-10-10-10/12-|
A#|--------------------------------------------------------------------------------|

A#|---------------------------------------0--0--0--0--0---0--0--0--0--0---0--0--0--0--0---0--0--0--0--|
 F|---------------------------------------0--0--0--0--0---0--0--0--0--0---0--0--0--0--0---0--0--0--0--|
D#|-14-14-14-14-14\12--12-12-12-12-12/15--15-15-15-15-15--15-15-15-15-15--15-15-15-15-15--15-15-15-15-|
A#|-x--x--x--x--x--x---x--x--x--x--x--x---x--x--x--x--x---x--x--x--x--x---x--x--x--x--x---x--x--x--x--|
 F|-12-12-12-12-12\10--10-10-10-10-10/13--13-13-13-13-13--13-13-13-13-13--13-13-13-13-13--13-13-13-13-|
A#|---------------------------------------------------------------------------------------------------|

Solo
A#|-15p12-------------------------------------------------------------------|
 F|-------15-12h13p12\10h12-----10----10------------------------------------|
D#|-------------------------/12----12----12p10----5h7p5---5-----------------|
A#|--------------------------------------------12-------7---7-5\3h5-3---3---|
 F|-------------------------------------------------------------------5---5-|
A#|-------------------------------------------------------------------------|

A#|-15p12------------------------------------------------------------------|
 F|-------15-12h13p12\10h12-12/13-12-----10----10-12b13r12-----------------|
D#|----------------------------------/12----12-------------10-12-----------|
A#|--------------------------------------------------------------10-12-10~-|
 F|------------------------------------------------------------------------|
A#|------------------------------------------------------------------------|

A#|-------0-------0----------------------------------------------------0------0-------|
 F|-10h12---12/15---15/17----------------------------------------10h12---10\9---9/15~-|
D#|------------------------------------------10h12--12b13r12-b13----------------------|
A#|-----------------------12ph~--10-10-10h12------------------------------------------|
 F|-----------------------------------------------------------------------------------|
A#|-----------------------------------------------------------------------------------|

A#|---------------0~-------12--12b13t19-----12--14b15-14-----12---10/-12---------------|
 F|---------------0~---/15--------------/15--------------/10----8--------10--12-/13\12-|
D#|-2p0-2p0-------2~-------------------------------------------------------------------|
A#|---------2p0---0~-------------------------------------------------------------------|
 F|-------------0-0~-------------------------------------------------------------------|
A#|---------------0~-------------------------------------------------------------------|

Play Riff 3 x2   "So long, fair enough..."

Ending
A#|-------------------------------------------------------------------------------------|
 F|-----------------------------------------------------------------------------0-------|
D#|-------------------------------------------------------------------------------------|
A#|-3-3-0--0-3-7-0------7----------2h3p2---2h3------3-3-0------7----------2h3h5---0-0-0-|
 F|-3-3-0--0-3-3-0-------------3h5-------3----------3-3-0-------------3h5---------0-0-0-|
A#|-3-3-0--0-3-3-0--0-3---0--0-----------------0>>>-3-3-0--0-3---0--0-------------0-0-0-|
                             *                                      *             * * *

***************************************************************************************************************
                                                6. NOT TODAY
***************************************************************************************************************

Riff 1   "Transcend, we try to rip the shell away..."
 C|---------------------------------------------------------------------|
 G|---------------------------------------------------------------------|
D#|-16--14--17--14-----14-14-14-14---16---14--14--14-14-14-/20-20-20-20-|
A#|-x---x---x---x------x--x--x--x----x----x---x---x--x--x---x--x--x--x--|
 F|-14--12--15--12--12-12-12-12-12-x-14---12--12--12-12-12-/18-18-18-18-|
 G|-0---0---0---0---0--0--0--0--0--x-0----0---0---0--0--0---0--0--0--0--|

 C|----------------------------------------------------------------|
 G|----------------------------------------------------------------|
D#|-16--14--17--14-----14-14-14-14---16---14--14--16-16-16-16b-16b-|
A#|-x---x---x---x------x--x--x--x----x----x---x---x--x--x--x---x---|
 F|-14--12--15--12--12-12-12-12-12-x-14---12--12--14-14-14-14b-14b-|
 G|-0---0---0---0---0--0--0--0--0--x-0----0---0---0--0--0--0---0---|

Play Riff 1 x2   "The counter measure you have..."

Riff 2   "It won't stick..."
 C|------------------------------------------------------------|
 G|-----------------------------------------1------------------|
D#|--------------------------------------------4---------------|
A#|-----------------------------------------------2-1--1-2-4-4-|
 F|---12---12------------12--------12--------------------------|
 G|-0----0----0--0-13--0----0-13-0----0-0-0--------------------|
                                        * *

 C|-------------------------------------------------------------|
 G|-----------------------------------------1-----7-4-5-7-0-8\7-|
D#|--------------------------------------------4----------------|
A#|-------------------------------------------------------------|
 F|---12---12------------12--------12---------------------------|
 G|-0----0----0--0-13--0----0-13-0----0-0-0---------------------|
                                        * *

Play Riff 2 x2   "The crooked smile we fake..."

Fill 1   "...is that the best we get..."
 C|----------------------|
 G|---1------------------|
D#|------4---------------|
A#|---------2-1--1-2-4-4-|
 F|----------------------|
 G|-0--------------------|

Riff 3   "This is the thing that swallows you whole..."
 C|-------------------------------12*--------------------------|
 G|-----------------------------------------------1------------|
D#|--------------------------------------------------4---------|
A#|------------------------------------------------------------|
 F|-12-----12---12b~--12-----12-------12-----12----------------|
 G|----0-0----0----------0-0----0--------0-0----0------0-0-0-0-|

 C|-----------------------------14/15-------------------------------|
 G|-----------------------------x--x--------------------------------|
D#|-----------------------------11/12-----14-----14/16-----14/16/17-|
A#|---------------------------------------x------x--x------x--x--x--|
 F|-12-----12-----12-----12---------------12-----12/14-----12/14/15-|
 G|----0-0----0------0-0----0-0-------0-0----0-0-------0-0----------|
                              *

Riff 4   "There's no more words, no more reasons..."
 C|----------------------------------------------------------------------|
 G|----------------------------------------------------------------------|
D#|----------------------------------------------------------------------|
A#|----------------------------------------------------------------------|
 F|----------------------------------------------------------------------|
 G|-5-5-5-7-7-7-8-8-8-10-10-10-13-13-13-13-13\12-0--0-13\12-0--0-12\10-0-|

 C|--------------------------------------------------------------|
 G|--------------------------------------------------------------|
D#|--------------------------------------------------------------|
A#|--------------------------------------------------------------|
 F|--------------------------------------------------------------|
 G|-5-5-5-7-7-7-8-8-8-10-10-10-1-1-1-1-1p0-0--0-1111-0--0--0-0-0-|
                                                ****

 C|----------------------------------------------------------------------|
 G|----------------------------------------------------------------------|
D#|----------------------------------------------------------------------|
A#|----------------------------------------------------------------------|
 F|----------------------------------------------------------------------|
 G|-5-5-5-7-7-7-8-8-8-10-10-10-13-13-13-13-13\12-0--0-13\12-0--0-12\10-0-|

 C|----------------------------------------------------------------------------------------------------|
 G|----------------------------------------------------------------------------------------------------|
D#|----------------------------------------------------------------------------------------------------|
A#|----------------------------------------------------------------------------------------------------|
 F|----------------------------------------------------------------------------------------------------|
 G|-5-5-5-7-7-7-8-8-8-10-10-10-13-13-13-13-13\12-0--0-13\12-0--0-12\10-0-13\12-0--0-13\12-0--0-12\10-0-|

Play Riff 1 x2   "Resist, you bite your tongue and stay asleep..."
Play Riff 2 x2   "It don't stick..."
Play Fill 1 x1   "...yeah, that's the thanks we get..."
Play Riff 3 x1   "This is the thing that swallows you whole..."
Play Riff 4 x1   "There's no more words, no more reasons..."

Fill 2   "I defeated it, we will become this..."
 C|-------------------------------------------------------------|
 G|-------------------------------------------------------------|
D#|-------------------------------------------------------------|
A#|-------------------------------------------------------------|
 F|-------------------------------------------------------------|
 G|-13\12-0--0-13\12-0--0-12\10-0-13\12-0--0-13\12-0--0-12\10-0-|

Riff 5   "All things must end..."
 C|------------------------------------------------------|
 G|------------------------------------------------------|
D#|------------------------------------------------------|
A#|------------------------------------------------------|
 F|------------------------------------------------------|
 G|-4-1-0--3-1-0--3-1-0--3--3--3-1-0-3-1-0--3-1-0--3-1-0-|

         "But you don't know what gives us hope..."
 C|----------------------------------------------------------------------------------------|
 G|----------------------------------------------------------------------------------------|
D#|-11--11--11--11-11--11-11-------------------11--11--11--11-11--11-11--------------------|
A#|-9---9---9---9--9---9--9--9--9--9--9-9--9-9-9---9---9---9--9---9--9--9--9--9--9--9--9-9-|
 F|-x---x---x---x--x---x--x--7--7--7--7-7--7-7-x---x---x---x--x---x--x--7--7--7--7--7--7-7-|
 G|-8---8---8---8--8---8--8--5--5--5--5-5--5-5-8---8---8---8--8---8--8--5--5--5--5--5--5-5-|

Fill 3
 C|-----|
 G|-----|
D#|-----|
A#|-----|
 F|-----|
 G|-0-0-|
    *

Play Riff 3 x0.5   "This is what you wanted so long..."
Play Riff 4 x1     "There's no more words, no more reasons..."
Play Riff 5 x2     "I defeated it, we will become this..." (first half only gets repeated twice to end song)

***************************************************************************************************************
                                                   7. CHOP
***************************************************************************************************************

Riff 1 (acoustic, use hybrid picking)
G#|----------------0-----------0----------------0-------------|
F#|------------------------0----------------------------------|
 E|-4b---------------------------4b---------------------------|
 B|-x-----------2b-----2h3---0---x-----------7b---------------|
F#|-5b-2--2--2-------------------5b-2--2--2---------7p5---5---|
G#|----0--0--0-------0--------------0--0--0-------0-----0---0-|
                                                        *   *

G#|----------------0-----------0----------------0-------------|
F#|------------------------0----------------------------------|
 E|-4b---------------------------4b---------------------------|
 B|-x-----------2b-----2h3---0---x-----------7b-----2p0---0---|
F#|-5b-2--2--2-------------------5b-2--2--2-------------------|
G#|----0--0--0-------0--------------0--0--0-------0-----3---3-|
                                                        *   *

Riff 2 (distortion, use hybrid picking)
G#|-----------------------------------------------------------------|
F#|----0------0--------0------0--------0------0---------------------|
 E|-------------------------------------------------------7-7---7-7-|
 B|-------------------------------------------------------x-x---x-x-|
F#|-7b-----7b-------7b-----7b-------7b-----7b-------------5-5---5-5-|
G#|------0------0--------0------0--------0------0---0-0-0-----0-----|
                                                    * * *     *

G#|------0-------------0------0--------0------0-------------------------|
F#|---------------------------------------------------------------------|
 E|---------------------------------------------------------------------|
 B|---------------------------------------------------------------------|
F#|---7b-----7b-----7b-----7b-------7b-----7b-----5-5-5----5-5-5--5-5-5-|
G#|-0------0----0--------0------0--------0------0-3-3-3--0-3-3-3--3-3-3-|
                                                  * * *  * * * *  * * *

Riff 3 (acoustic, use hybrid picking)   "On my way to a dark horizon..."
G#|-------0---0-----0------0-----0-----0-----0-|
F#|----------------------------------------0---|
 E|--------------------------------------------|
 B|---7-----7----------------------------------|
F#|-------------5-7----------5-7---5-7---------|
G#|-0---0-------------3b-0---------0-0---3-----|

Play Riff 3 x2   "Disgrace has yet to find me..."
Play Riff 2 x1   "Damn all your little voices..."

Riff 4   "Look up to the blackened sky..."
G#|---0---0---0---0---0---0-----0---0------------|
F#|----------------------------------------------|
 E|-3---4---6---7---6---4------------------------|
 B|-------------------------4h5---4---2h4p2p0-2*-|
F#|----------------------------------------------|
G#|----------------------------------------------|

Riff 5   "I see this heading for disaster..."
G#|-----------------------0---------------------------|
F#|---------------------5-5---------------------------|
 E|-------------------5---5---------------------------|
 B|-----------------4---------------------------------|
F#|---------------------------------------------------|
G#|-0--/13-12\-0------------0-000-0-0-00---0-0-0-0000-|
                            * *** * * **   * * * ****

G#|-------------------------------0-0---------0-0-------------------------|
F#|-------------------------------7-7---------7-7-------------------------|
 E|-------------------------------0-0---------0-0----12-12-12-12-11-11-11-|
 B|-----------------------7-9-----9-9-7-9-----9-9----x--x--x--x--x--x--x--|
F#|-----------------------x-x-----x-x-x-x-----x-x----10-10-10-10-9--9--9--|
G#|-13-12-10-12-10-0-8\-0-8-8-8-8-8-8-8-8-8-8-8-8-3b-0--0--0--0--0--0--0--|
    *  *  *  *  *  *          * *         * *

Play Riff 5 x2   "I see this opened up and bleeding..."
Play Riff 2 x1   (second half only)
Play Riff 3 x2   "What do you say..."
Play Riff 2 x1   "Damn all your little voices..."
Play Riff 4 x1   "Look up to the blackened sky..."
Play Riff 5 x2   "I see this heading for disaster..."

Riff 6
G#|-----------------------------------------------------------|
F#|-----------------------------------------------------------|
 E|-----------------------------------------------------------|
 B|-----------------------------------------------------------|
F#|-----------------------------------------------------------|
G#|-0--0--0--0--0--0--0--0--0--0--0--0--0--0--0--0--0--0--0-0-|
    *  *  *  *  *  *  *  *  *  *  *  *  *  *  *  *  *  *  * *

Play Riff 6 x2

Solo rhythm
G#|---------------------0---------------------------------------|
F#|---------------------7\--------------------------------------|
 E|---------------------0---------------------------------------|
 B|---------------------9\--------------------------------------|
F#|---------------------x---------------------------------------|
G#|-0--0--0--0--0--0--0-8\-0--0--0--0--0--0--0--0--0--0--0--0-0-|
    *  *  *  *  *  *  *    *  *  *  *  *  *  *  *  *  *  *  * *

G#|-------------------0~-------------0--0--0~--------------------------------|
F#|-------------------7~-------------7--7--7~--------------------------------|
 E|-------------------0~-------------0--0--0~--------------------------------|
 B|-------------------9~-------------9--9--9~--------------------------------|
F#|-------------------x--------------x--x--x---------------------------------|
G#|-0--0--12\-0--0--0-8~-0--0--12\-0-8--8--8~-0--0--0--13-12-0-13-12-0-13-12-|
                                                       *  *  * *  *  * *  *

Solo (w/ heavy delay, lightly palm-muted)
G#|---------------------------------------------------------------------------------------------|
F#|-9-----9-----9-----9-----9-----9-----9-----9-----7-----7-----7-----7-----7-----7-----7-----7-|
 E|---7h9---7h9---7h9---7h9---7h9---7h9---7h9---6h7---6h7---6h7---6h7---6h7---6h7---6h7---6h7---|
 B|---------------------------------------------------------------------------------------------|
F#|---------------------------------------------------------------------------------------------|
G#|---------------------------------------------------------------------------------------------|

G#|------------------------------------------------------|
F#|-----10-----10-----10-----10-----10-----10-----10-----|
 E|-7h9----7h9----7h9----7h9----7h9----7h9----7h9----7h9-|
 B|------------------------------------------------------|
F#|------------------------------------------------------|
G#|------------------------------------------------------|

G#|------------------------------------0~~--------0-----------------|
F#|------9------10-----/12-14----------14~--16h17---16-17~--19~-21~-|
 E|-/7-9---9-/11--11~---------11-9-/11-11~--------------------------|
 B|-----------------------------------------------------------------|
F#|-----------------------------------------------------------------|
G#|-----------------------------------------------------------------|

Play Riff 3 x1
Play Riff 5 x2   "I see this heading for disaster..."

Ending
G#|-------0--------------0-------------0-------------------0----------|
F#|--------------------------------------------------------7\---------|
 E|--------------------------------------------------------0----------|
 B|--------------------------------------------------------9\---------|
F#|--------------------------------------------------------x----5-5-5-|
G#|-0-13\---0-0-0-0---13\--0-0-0-0--13\--0-0-0-0---0-0-0-0-8\-0-3-3-3-|
                                                   * * * *    * * * *

***************************************************************************************************************
                                                8. KILL THE FLAW
***************************************************************************************************************

Intro
A#|----------------------|
 F|----------------------|
D#|----------------------|
A#|----------------------| x2
 F|----------------------|
A#|-0-0--0-0-0--0-0-0--0-|
    * *  * * *  * * *  *

A#|-----------------------------------------------------------------------------------------|
 F|-----------------------------------------------------------------------------------------|
D#|-----------------------------------------------------------------------------------------|
A#|-------------------------------------------------------------12--------------------------|
 F|-------------------------12--------------------------------------------------------------|
A#|-12-13-14-15-12-13-14-15----15-14-13-12-13-14-15-12-13-14-15----15-14-13-12-13-14-15-12\-|

Riff 1   "Shocking, it tastes so wrong it burns..."
A#|-----------------------------------------------------------------|
 F|-----------------------------------------------------------------|
D#|-----------------------------------------------------------------|
A#|-------------------------------------------------------3-------3-|
 F|---3-------3-------3-------3-------3h5-----3h5-----3h5-----3h5---|
A#|-0---0-0-0---0-0-0---0-0-0---0-0-0-----0-x-----0-x ------x-------|
    *   * * *   * * *   * * *   * * * 

A#|-----------------------------------------------------------------|
 F|-----------------------------------------------------------------|
D#|-----------------------------------------------------------------|
A#|-----------------------------------------------------------------|
 F|---3-------3-------3-------3-------3h5-----3h5-------------------|
A#|-0---0-0-0---0-0-0---0-0-0---0-0-0-----0-x-----0--0-0-0-5-5-5-5b-|
    *   * * *   * * *   * * *   * * *

A#|-----------------------------------------------------------------|
 F|-----------------------------------------------------------------|
D#|---5-------5-------5-------5-------------------------------------|
A#|---x-------x-------x-------x---------------------------3-------3-|
 F|---3-------3-------3-------3-------3h5-----3h5-----3h5-----3h5---|
A#|-0---0-0-0---0-0-0---0-0-0---0-0-0-----0-x-----0-x-------x-------|
    *   * * *   * * *   * * *   * * *

A#|-----------------------------------------------------------------|
 F|-----------------------------------------------------------------|
D#|---5-------5-------5-------5-------------------------------------|
A#|---x-------x-------x-------x-------------------------------------|
 F|---3-------3-------3-------3-------3h5-----3h5-------------------|
A#|-0---0-0-0---0-0-0---0-0-0---0-0-0-----0-x-----0--0-0-0-5-5-5-5b-|
    *   * * *   * * *   * * *   * * *

Riff 2   "Travel back from going nowhere..." (let all notes ring out)
A#|-------2--------------2--------------3--------------0--------|
 F|----------0---0----------0---0----------0---0---0------0---0-|
D#|---0--------0-----0--------0-----0--------0-------0------0---|
A#|-----2--------------2--------------3-------------------------|
 F|-------------------------------------------------------------|
A#|-2--------------2--------------3--------------5--------------|

Riff 3   "If I would have ever..."
A#|-0---0--0--0---0--0--0---0--0--0---0--0--0---0--0--0---0--0--0---0--0--0--0--0--|
 F|-0---0--0--0---0--0--0---0--0--0---0--0--0---0--0--0---0--0--0---0--0--0--0--0--|
D#|-10--10-10-10--10-10-10--10-10-10--10-10-10--10-10-10--10-10-10--10-10/12-12-12-|
A#|-8---8--8--8---8--8--8---8--8--8---8--8--8---8--8--8---8--8--8---8--8//10-10-10-|
 F|-8---8--8--8---8--8--8---8--8--8---8--8--8---8--8--8---8--8--8---8--8//10-10-10-|
A#|-8---8--8--8---8--8--8---8--8--8---8--8--8---8--8--8---8--8--8---8--8//10-10-10-|

A#|-0--0-0-0--0-0-0--0-0-0--0-0-0--0-0-0--0-0-0--0-0-0--0--0--|
 F|-0--0-0-0--0-0-0--0-0-0--0-0-0--0-0-0--0-0-0--0-0-0--0--0--|
D#|-9--9-9-9--9-9-9--9-9-9--9-9-9--9-9-9--9-9-9--9-9/10-10-10-|
A#|-7--7-7-7--7-7-7--7-7-7--7-7-7--7-7-7--7-7-7--7-7/8--8--8--|
 F|-7--7-7-7--7-7-7--7-7-7--7-7-7--7-7-7--7-7-7--7-7/8--8--8--|
A#|-7--7-7-7--7-7-7--7-7-7--7-7-7--7-7-7--7-7-7--7-7/8--8--8--|

A#|-0--0-0-0--0-0-0--0-0-0--0-0-0--0-0-0--0-0-0--0-0-0--0-0-0--0-0-0--0-0-0--0-0-0--0-0-0-|
 F|-0--0-0-0--0-0-0--0-0-0--0-0-0--0-0-0--0-0-0--0-0-0--0-0-0--0-0-0--0-0-0--0-0-0--0-0-0-|
D#|-7--7-7-7--7-7-7--7-7-7--5/7-7--7-7-7--7-7-7--7-7-7--5/7-7--7-7-7--7-7-7--7-7-7--5/7-7-|
A#|-x--x-x-x--x-x-x--x-x-x--x-x-x--x-x-x--x-x-x--x-x-x--x-x-x--x-x-x--x-x-x--x-x-x--x-x-x-|
 F|-5--5-5-5--5-5-5--5-5-5--3/5-5--5-5-5--5-5-5--5-5-5--3/5-5--5-5-5--5-5-5--5-5-5--3/5-5-|
A#|-0--0-0-0--0-0-0--0-0-0--0-0-0--0-0-0--0-0-0--0-0-0--0-0-0--0-0-0--0-0-0--0-0-0--0-0-0-|

A#|-0-0-0--0-0-0--0-0-0-0-0-0-|
 F|-0-0-0--0-0-0--0-0-0-0-0-0-|
D#|-7-7-7--7-7-7--7-7-5-5-5-5-|
A#|-x-x-x--x-x-x--x-x-x-x-x-x-|
 F|-5-5-5--5-5-5--5-5-3-3-3-3-|
A#|-0-0-0--0-0-0--0-0---------|

A#|-0---0--0--0---0--0--0---0--0--0---0--0--0---0--0--0---0--0--0---0--0--0--0--0--|
 F|-0---0--0--0---0--0--0---0--0--0---0--0--0---0--0--0---0--0--0---0--0--0--0--0--|
D#|-10--10-10-10--10-10-10--10-10-10--10-10-10--10-10-10--10-10-10--10-10/12-12-12-|
A#|-8---8--8--8---8--8--8---8--8--8---8--8--8---8--8--8---8--8--8---8--8//10-10-10-|
 F|-8---8--8--8---8--8--8---8--8--8---8--8--8---8--8--8---8--8--8---8--8//10-10-10-|
A#|-8---8--8--8---8--8--8---8--8--8---8--8--8---8--8--8---8--8--8---8--8//10-10-10-|

A#|-0--0-0-0--0-0-0--0-0-0--0-0-0--0-0-0--0-0-0--0-0-0--0--0--|
 F|-0--0-0-0--0-0-0--0-0-0--0-0-0--0-0-0--0-0-0--0-0-0--0--0--|
D#|-9--9-9-9--9-9-9--9-9-9--9-9-9--9-9-9--9-9-9--9-9/10-10-10-|
A#|-7--7-7-7--7-7-7--7-7-7--7-7-7--7-7-7--7-7-7--7-7/8--8--8--|
 F|-7--7-7-7--7-7-7--7-7-7--7-7-7--7-7-7--7-7-7--7-7/8--8--8--|
A#|-7--7-7-7--7-7-7--7-7-7--7-7-7--7-7-7--7-7-7--7-7/8--8--8--|

A#|-0--0-0-0--0-0-0--0-0-0--0-0-0--0-0-0--0-0-0--0-0-0--0-0-0--0-0-0--0-0-0--0-0-0--0-0-0-|
 F|-0--0-0-0--0-0-0--0-0-0--0-0-0--0-0-0--0-0-0--0-0-0--0-0-0--0-0-0--0-0-0--0-0-0--0-0-0-|
D#|-7--7-7-7--7-7-7--7-7-7--5/7-7--7-7-7--7-7-7--7-7-7--5/7-7--7-7-7--7-7-7--7-7-7--5/7-7-|
A#|-5--5-5-5--5-5-5--5-5-5--3/5-5--5-5-5--5-5-5--5-5-5--3/5-5--5-5-5--5-5-5--5-5-5--3/5-5-|
 F|-5--5-5-5--5-5-5--5-5-5--3/5-5--5-5-5--5-5-5--5-5-5--3/5-5--5-5-5--5-5-5--5-5-5--3/5-5-|
A#|-5--5-5-5--5-5-5--5-5-5--3/5-5--5-5-5--5-5-5--5-5-5--3/5-5--5-5-5--5-5-5--5-5-5--3/5-5-|

A#|-0--0-0-0--0-0-0--0-0-0-0-0-0-|
 F|-0--0-0-0--0-0-0--0-0-0-0-0-0-|
D#|-7--7-7-7--7-7-7--7-7-7-7-7-7-|
A#|-5--5-5-5--5-5-5--5-5-5-5-5-5-|
 F|-5--5-5-5--5-5-5--5-5-5-5-5-5-|
A#|-5--5-5-5--5-5-5--5-5-5-5-5-5-|

Fill 1
A#|-----------------------------------------------------------------|
 F|-----------------------------------------------------------------|
D#|-----------------------------------------------------------------|
A#|-----------------------------------------------------------------|
 F|-----------------5-----------------------5-----------------------|
A#|-0-1-2-3-0-1-2-3---3-2-1-0-1-2-3-0-1-2-3---3-2-1-0-1-2-3-0-1-2-3-|

Play Riff 1 x1   "Fading out, just to end it..."
Play Riff 2 x1   "Travel back to where you're nothing..."
Play Riff 3 x1   "If I would have ever..."

Solo rhythm
A#|--------------------------------------|
 F|--------------------------------------|
D#|--------------------------------------|
A#|--------------------------------------|---------------------------------------------------|
 F|-0-0-0--0--0-0-0-0----0-0--0--0-0-0-0-|                                                   |
A#|-0-0-0--0--0-0-0-0----0-0--0--0-0-0-0-|                                                   |
    * * *  *  * * * *    * *  *  * * * *                                                     |
                                                                                             x2
A#|--------------------------------------------------------------------------------|         |
 F|--------------------------------------------------------------------------------|         |
D#|--------------------------------------------------------------------------------|         |
A#|--------------------------------------------------------------------------------|---------|
 F|-0-0-0--0--0-0-0-0----0-0--0--0-------------------------------------------------|
A#|-0-0-0--0--0-0-0-0----0-0--0--0-8-8-8-8-8-8-5-5-5-5-5-5-1-1-1-1-1-1-1-3b-1-0-3b-|
    * * *  *  * * * *    * *  *  *

A#|-----------------------------------------------------------------------------|
 F|-----------------------------------------------------------------------------|
D#|-----------------------------------------------------------------------------|
A#|-----------------------------------------------------------------------------|
 F|-0--0--0--0--0--0--0--0-------------1-0--0--0--0--0--0--0--0---------------1-|
A#|-0--0--0--0--0--0--0--0-1-3-0-3-2-0---0--0--0--0--0--0--0--0-1-3-0-3-2-0-2---|
    *  *  *  *  *  *  *  *               *  *  *  *  *  *  *  *

A#|--------------------------------------------------------------------|
 F|--------------------------------------------------------------------|
D#|--------------------------------------------------------------------|
A#|--------------------------------------------------------------------|
 F|-0--0--0--0--0--0--0--0---------------0--0--0--0--0-----------------|
A#|-0--0--0--0--0--0--0--0-1-3-0-3-2-0-2-0--0--0--0--0-1-3-0-3-2-0-2-0-|
    *  *  *  *  *  *  *  *               *  *  *  *  *

Solo
A#|---------------------------------------------------------------------------------12----14----14b15~-|
 F|-8/10~--8h10p8-7\5-7-7b8-7--5-3/5-8/10~--8h10p8---8-10-10/12~-10-8------13----------------12--------|
D#|------------------------------------------------9-------------------/14----14-12----12--------------|
A#|----------------------------------------------------------------------------------------------------|
 F|----------------------------------------------------------------------------------------------------|
A#|----------------------------------------------------------------------------------------------------|

A#|-14p12----12--------12p10-------14p12-------15p12-------17p15-------15p12-------14p12-------|
 F|-------15----15b17~-------15p12-------15p12-------15p12-------17p15-------15p12-------15p12-|
D#|--------------------------------------------------------------------------------------------|
A#|--------------------------------------------------------------------------------------------|
 F|--------------------------------------------------------------------------------------------|
A#|--------------------------------------------------------------------------------------------|

A#|-/17p15-------17p15-------17b19~--17/12-12h15p12----12-----------------------|
 F|--------17p15-------17p15------------------------15----15-12-15-12-13-13/17~-|
D#|-----------------------------------------------------------------------------|
A#|-----------------------------------------------------------------------------|
 F|-----------------------------------------------------------------------------|
A#|-----------------------------------------------------------------------------|

A#|--------10-----0--0--0---0--0--0--0--0---0--0--0----------------|
 F|-10--8------7-----5-/7---8--8--8--8--10--7--7--7--8-7-5-7-----8-|
D#|----------------------------------------------------------5/7---|
A#|----------------------------------------------------------------|
 F|----------------------------------------------------------------|
A#|----------------------------------------------------------------|

A#|-0--0--0--0--0--0--0---0---------------7h8p7--0---0---0---0---0---0---0---0---------------0-------|
 F|-8--8--8--8--7--7--10--10--10-8-7-8-10--------12--12--13--12--10--10--12--12--13-12-10-12---10h12-|
D#|--------------------------------------------------------------------------------------------------|
A#|--------------------------------------------------------------------------------------------------|
 F|--------------------------------------------------------------------------------------------------|
A#|--------------------------------------------------------------------------------------------------|

A#|----------15--17------17--19--22--22b24~-------22b24~-|
 F|-/15--17----------15----------------------------------|
D#|------------------------------------------------------|
A#|------------------------------------------------------|
 F|------------------------------------------------------|
A#|------------------------------------------------------|

Play Riff 3 x1   "If I would have ever..."

Ending
A#|-----------------------------------------------------------------------------|
 F|-----------------------------------------------------------------------------|
D#|-----------------------------------------------------------------------------|
A#|-----------------------------------------------------------------------------|
 F|-0--0--0--0--0--0--0--0-------------1-0--0--0--0--0--0--0--0---------------1-|
A#|-0--0--0--0--0--0--0--0-1-3-0-3-2-0---0--0--0--0--0--0--0--0-1-3-0-3-2-0-2---|
    *  *  *  *  *  *  *  *               *  *  *  *  *  *  *  *

A#|----------------------------------------------------------------------------|
 F|----------------------------------------------------------------------------|
D#|----------------------------------------------------------------------------|
A#|----------------------------------------------------------------------------|
 F|-0--0--0--0--0--0--0--0---------------0-0--0-0--0-0--0-0--0-----------------|
A#|-0--0--0--0--0--0--0--0-1-3-0-3-2-0-2-0-0--0-0--0-0--0-0--0-1-3-0-3-2-0-2-0-|
    *  *  *  *  *  *  *  *               * *  * *  * *  * *  *

***************************************************************************************************************
                                                 9. SILLY BEAST
***************************************************************************************************************

Riff 1
 C|----------------------------------------------|
 G|----------------------------------------------|
D#|-------7b-----7b---7/10-------7b-----7b---13b-|
A#|-------x------x----x-x--------x------x----x---|
 F|-------5b-----5b---5/8--------5b-----5b---11b-|
 G|-0-0-0----0-0----0------0-0-0----0-0----0-----|
    * * *    * *    *      * * *    * *    *

 C|---------------------------------------------|
 G|---------------------------------------------|
D#|-------7b-----7b---7/10-------7b-----7b---4b-|
A#|-------x------x----x-x--------x------x----x--|
 F|-------5b-----5b---5/8--------5b-----5b---2b-|
 G|-0-0-0----0-0----0------0-0-0----0-0----0----|
    * * *    * *    *      * * *    * *    *

Play Riff 1 x3

Riff 2
 C|----------------------------------------------|
 G|----------------------------------------------|
D#|-------14-----14---14/16-------14-----14---13-|
A#|-------x------x----x--x--------x------x----x--|
 F|-------12-----12---12/14-------12-----12---11-|
 G|-0-0-0----0-0----0-------0-0-0----0-0----0----|

Play Riff 2  x2

Riff 3
 C|-----------------------------|
 G|-----------------------------|
D#|-------7b-----------7----10b-|
A#|-------6b-----------6----x---|
 F|-------5b-----------5----8b--|
 G|-000-0----0-0-0-0-0----------|
    *** *    * * * * *

Riff 4   "So if my eyes are sewn..."
 C|-----------------------------------------------------------------------------------------------|
 G|-----------------------------------------------------------------------------------------------|
D#|-----------------------------------------------------------------------------------------------|
A#|-----------------------------------------------------------------------------------------------|
 F|-----------------------------------------------------------------------------------------------|
 G|-000-0-0-0-0-0-0-0-----0-0-000-0-0-0-0-1-0-0-0-0-0-1-0-0--0-0-0--0-0-100-0-0-0-0-1-0-0-1-0-1-3-|
    *** * * * * * * *     * * *** * * * * * * * * * * * * *  * * *  * * *** * * * * * * * * * * *

Play Riff 4 x2   "And if you think it's so wrong..."

Riff 5
 C|----------------------------------------------|
 G|----------------------------------------------|
D#|-12---12---12---14---11---11---11/12----------|
A#|-x----x----x----x----x----x----x--x-----7~-9\-|
 F|-10---10---10---12---9----9----9//10-10~------|
 G|----0----0----0----0----0----0----------------|

Riff 6   "Beneath this wonderful lie you mastered..."
 C|-------------------------------------------------|
 G|-------------------------------------------------|
D#|-12\---12\-------------12\-----------------------|
A#|-x-----x-----------9---x-----------9---------7h9-|
 F|-10\---10\---10h12-----10\---10h12---10-9h10-----|
 G|-----0-----0---------0-----0---------------------|

 C|---------------------------------------------------------------------|
 G|---------------------------------------------------------------------|
D#|-14\---14\--------------12/14-14-14-14/16-16-16-12\11-11-11-12\9-9-9-|
A#|-x-----x----------------x--x--x--x--x--x--x--x--x--x--x--x--x--x-x-x-|
 F|-12\---12\--------------10/12-12-12-12/14-14-14-10\9--9--9--10\7-7-7-|
 G|-----0-----0--0-0-0-0-0----------------------------------------------|

 C|-------------------------------------------------|
 G|-------------------------------------------------|
D#|-12\---12\-------------12\-----------------------|
A#|-x-----x-----------9---x-----------9---------7h9-|
 F|-10\---10\---10h12-----10\---10h12---10-9h10-----|
 G|-----0-----0---------0-----0---------------------|

 C|---------------------------------------------------------------------------------------------|
 G|---------------------------------------------------------------------------------------------|
D#|-14-14-14-14-14-14-14-14-14/16-16-16-16-16-15-15-15-15-15-15-11-11-11-11-12-12-12-12-9-9-9-9-|
A#|-x--x--x--x--x--x--x--x--x--x--x--x--x--x--x--x--x--x--x--x--x--x--x--x--x--x--x--x--x-x-x-x-|
 F|-12-12-12-12-12-12-12-12-12/14-14-14-14-14-13-13-13-13-13-13-9--9--9--9--10-10-10-10-7-7-7-7-|
 G|---------------------------------------------------------------------------------------------|

Play Riff 2 x2
Play Riff 3 x1
Play Riff 4 x2   "For all the seasons you have lost..."
Play Riff 5 x1
Play Riff 6 x2   "Beneath this wonderful lie you mastered..."

Riff 7
 C|----------------------------------------------------------------|
 G|-------------------------------------------------------------0~-|
D#|-7-----7-----7-----7-----7---7----------------------------------|
A#|-x-----x-----x-----x-----x---x-----7------7------7---------7~---|
 F|-5-----5-----5-----5-----5---5-----10-----10-----10-----10~-----|
 G|---0-0---0-0---0-0---0-0---0---0-0----0-0----0-0----0-0---------|
      * *   * *   * *   * *   *   * *    * *    * *    * *

Play Riff 7 x2

Solo rhythm
 C|---------------------------------------------------------------------------------|
 G|---------------------------------------------------------------------------------|
D#|---------------------------------------------------------------------------------|
A#|---------------------------------------------------------------------------------|
 F|-2-2-2-2-2-2-2-2-2-2-2-2-2-2-2-2-10-10-10-10-10-10-10-10-10-10-10-10-10-10-10-10-|
 G|-0-0-0-0-0-0-0-0-0-0-0-0-0-0-0-0-8--8--8--8--8--8--8--8--8--8--8--8--8--8--8--8--|

 C|-----------------------------------------------------------------------------------|
 G|-----------------------------------------------------------------------------------|
D#|-----------------------------------------------------------------------------------|
A#|-----------------------------------------------------------------------------------|
 F|-6-6-6-6-6-6-6-6-6-6-6-6-6-6-6-6-5-5-5-5-5-5-5-5-5-5-5-5-5-5-5-5-------------------|
 G|-4-4-4-4-4-4-4-4-4-4-4-4-4-4-4-4-3-3-3-3-3-3-3-3-3-3-3-3-3-3-3-3----0--0-12\-0-12\-|

 C|-------------------------------------------------------------------------------------------------|
 G|-------------------------------------------------------------------------------------------------|
D#|-------------------------------------------------------------------------------------------------|
A#|-------------------------------------------------------------------------------------------------|
 F|-10-10-10-10-10-10-10-10-10-10-10-10-10-10-10-10-13-13-13-13-13-13-13-13-13-13-13-13-13-13-13-13-|
 G|-8--8--8--8--8--8--8--8--8--8--8--8--8--8--8--8--11-11-11-11-11-11-11-11-11-11-11-11-11-11-11-11-|

 C|----------------------------------------------------------------------------------------------|
 G|----------------------------------------------------------------------------------------------|
D#|-------------------------------------------------------7b-----7b---7/10-------7b-----7b---13b-|
A#|-------------------------------------------------------x------x----x-x--------x------x----x---|
 F|-13-13-13-13-13-13-13-13-13-13-13-13-13-13-13-13-------5b-----5b---5/8--------5b-----5b---11b-|
 G|-11-11-11-11-11-11-11-11-11-11-11-11-11-11-11-11-0-0-0----0-0----0------0-0-0----0-0----0-----|
                                                    * * *    * *    *      * * *    * *    *

Play Riff 5 x1

Solo
 C|----------------------------------------------14b15~------------------0-------0-------|
 G|----12------12-------12--------8-----------12-------------15----15\14-----------------|
D#|-/9----9-------------------/11---11--/9-11------------/18----18---------16\14---14\12-|
A#|---------12----12-11----11------------------------------------------------------------|
 F|--------------------------------------------------------------------------------------|
 G|--------------------------------------------------------------------------------------|

 C|--------19----19-22-/24-19~--------15-------|
 G|-/17-19----------------------19h20----20-19-|
D#|-----------19-------------------------------|
A#|--------------------------------------------|
 F|--------------------------------------------|
 G|--------------------------------------------|

 C|-14p12-------15p12-------15p12-------18p15-------19p15-------19p15-------21p15-------21p15-------|
 G|-------14p12-------15p12-------15p12-------17p15-------17p15-------17p15-------17p15-------17p15-|
D#|-------------------------------------------------------------------------------------------------|
A#|-------------------------------------------------------------------------------------------------|
 F|-------------------------------------------------------------------------------------------------|
 G|-------------------------------------------------------------------------------------------------|

 C|-21b22-21~--15---------------------0~--------7*-|
 G|------------17b19~---------------8~----7*-------|
D#|-----------------------------/11~---------5*----|
A#|------------------------------------------------|
 F|------------------------------------------------|
 G|------------------------------------------------|

Play Riff 6 x2   "Beneath this wonderful lie you mastered..."

Riff 8
 C|-----------------------------------------------------------------------|
 G|-----------------------------------------------------------------------|
D#|-----------------------------------------------------------------------|
A#|-----------------------------------------------------------------------|
 F|-----------------------------------------------------------------------|
 G|-0-0-0---0-0>>>-0--0-0-0-0----0-0-0---0--0-0--0--0--0-0-0-0-0-0-0-0>>>-|
                * whammy pedal down an octave                          *

***************************************************************************************************************
                                            10. PEACE AND DESTRUCTION
***************************************************************************************************************

Riff 1 (w/ heavy delay)
 B|-------------------------0-0-----------------------------------|
F#|-7h8p7-7h8p7-7h8p7-7h8p7-----7h8p7-7h8p7-7h8p7-7h8p7-7h8p7-7h8-|
 E|---------------------------------------------------------------|
 B|---------------------------------------------------------------| repeats throughout entire intro
F#|---------------------------------------------------------------|
 B|---------------------------------------------------------------|

Riff 2
 B|-------------------------------------------------------------------------------------------------|
F#|-------------------------------------------------------------------------------------------------|
 E|---------------7~--6~------------------------------------------7~--6~----------------------------|
 B|-6b-----2b-----x---x--6-6\-----------------------6b-----2b-----x---x--6-6\-----------------------|
F#|-x--x-x-x--x-x-5~--4~-x-x------------------------x--x-x-x--x-x-5~--4~-x-x------------------------|
 B|-6b-x-x-2b-x-x--------6-6\---6-3--3-2---3-2--3-0-6b-x-x-2b-x-x--------6-6\---6-3--3-0---3-2--3-0-|

Riff 3
 B|--------------------------------------------0----------0-----|
F#|--------------------------------------------0----------0-----|
 E|-4-4-4-4------4-4-4-4----------4-4-4-4-----------------------|
 B|-2-2-2-2--2-0-2-2-2-2--2-3-2-0-2-2-2-2--2h3--------2h3-------|
F#|-2-2-2-2--2-0-2-2-2-2--2-3-2-0-2-2-2-2-----------------------|
 B|-2-2-2-2--2-0-2-2-2-2--2-3-2-0-2-2-2-2--------000--------000-|
               *            * * *

Play Riff 3 x2
(rest)
Play Riff 3 x2   "I see the devil and he knows your name..."

Riff 4   "The voids we fill don't make us beautiful..."
 B|------------------------------------------------------------------0-0-0-0-0-0-0-0-0-0-|
F#|------------------------------------------------------------------0-0-0-0-0-0-0-0-0-0-|
 E|-14-14-14-14-14/16-14-17-17-16-14-14-14/16-14-14-14\13-13-13-13\9-9-9-9\7-7-7-7/9-7/9-|
 B|-x--x--x--x--x--x--x--x--x--x--x--x--x--x--x--x--x--x--x--x--x--x-x-x-x-x-x-x-x-x-x-x-| x2
F#|-12-12-12-12-12/14-12-15-15-14-12-12-12/14-12-12-12\11-11-11-11\7-7-7-7\5-5-5-5/7-5/7-|
 B|--------------------------------------------------------------------------------------|

 B|-------------------------------------------------|
F#|-------------------------------------------------|
 E|-14-14-14-14-14/16-14-17-17-16-14-14-14/16-12/16-|
 B|-x--x--x--x--x--x--x--x--x--x--x--x--x--x--x--x--|
F#|-12-12-12-12-12/14-12-15-15-14-12-12-12/14-12/14-|
 B|-------------------------------------------------|

Riff 5   "So cut it down..."
 B|---------------------------|
F#|---------------------------|
 E|---------------------------|
 B|-2-2-2-2/6--6-3-3--3-3-2-0-|
F#|-2-2-2-2/6--6-3-3--3-3-2-0-|
 B|-2-2-2-2/6--6-3-3--3-3-2-0-|

Play Riff 5 x2   "So cut it..."
Play Riff 1 x6   "I want the fight without a choice..."
Play Riff 3 x2   "I see the devil and he knows your name..."
Play Riff 4 x1   "The voids we fill don't make us beautiful..."
Play Riff 5 x2   "So cut it down..."
Play Riff 1 throughout bridge

Riff 6
 B|----------------------------------------------------------------------------------0-|
F#|----------------------------------------------------------------------------------0-|
 E|-x-x-4-4-4-4------4-4-4-4----------3-------4-4-4-4------4-4-4-4----------3----------|
 B|-x-x-2-2-2-2--2-0-2-2-2-2--2-3-2-0-1-------2-2-2-2--2-0-2-2-2-2--2-3-2-0-1----------|
F#|-x-x-2-2-2-2--2-0-2-2-2-2--2-3-2-0-1-------2-2-2-2--2-0-2-2-2-2--2-3-2-0-1----------|
 B|-x-x-2-2-2-2--2-0-2-2-2-2--2-3-2-0-1-------2-2-2-2--2-0-2-2-2-2--2-3-2-0-1----------|
                   *            * * *                    *            * * *
 
Riff 7
 B|----------------------------|
F#|----------------------------|
 E|-4-4-4-4------4-4-4-4-------|
 B|-2-2-2-2--2-0-2-2-2-2--2-3/-|
F#|-2-2-2-2--2-0-2-2-2-2--2-3/-|
 B|-2-2-2-2--2-0-2-2-2-2--2-3/-|
               * 

Play Riff 7 x3

Fill 1
 B|-------------------------------------|
F#|-------------------------------------|
 E|-------------------------------------|
 B|-------------2-3--------------2-0-2~-|
F#|-------------2-3--------------2-0-2~-|
 B|-6-3-0-3-2-0-2-3--6-3-0-3-2-0-2-0-2~-|
    * * * * * *   *  * * * * * *   *

Play Riff 4 x2   "The voids we fill don't make us beautiful..."
Play Riff 5 x2   "So cut it down..."
Play Riff 7 x2

Riff 8 (let all notes ring out)
 B|---------------------------------------------------------------------------|
F#|---------------------------------------------------------------------------|
 E|---------------------------------------------------------------------------|
 B|-----0---0---0----0---0-------0---0---0----0---0---0----0-------------2-1~-|
F#|----------------------------------------------------------------------2-1~-|
 B|-2b3---2---0---/6---3---3-2b3---2---0--2b3---2---0---/6---6-3-0-3-2-0-2-1~-|
                                                             * * * * * * * *

***************************************************************************************************************
                                                    11. TORCHED
***************************************************************************************************************

Riff 1
 B|-------------------------------------0-|
F#|-------------------------------------0-|
 E|-------------------------------------3-|
 B|-------------------------------------5-| x3
F#|-0-0-0-0-0-0-0--0-0-0-0--0-0-0-0-0-0---|
 B|-0-0-0-0-0-0-0--0-0-0-0--0-0-0-0-0-0---|
    * * * * * *    * * *    * * * * * *

 B|----------------------------------------------|
F#|----------------------------------------------|
 E|----------------------------------------------|
 B|----------------------------------------------|
F#|-0-0-0-0-0-0-0--0-0-0-----3-------------------|
 B|-0-0-0-0-0-0-0--0-0-0-3h5---5-3-0-3-1-0-1p0-0-|
    * * * * * *    * * *

Riff 2
 B|-0--0--0--0--0-----0--0--0--0-----0--0--0--0~---|
F#|-6--5--3--5--9b10--5--3--5--9b10--5--3--5--6~-\-|
 E|------------------------------------------------|
 B|------------------------------------------------|
F#|------------------------------------------------|
 B|------------------------------------------------|

Riff 3   "Shake the walls with..."
 B|--------------------------------------------------------------------------------------|
F#|--------------------------------------------------------------------------------------|
 E|-------13b-----------------------------------13b--------------------------------------|
 B|-------x-------------------------------------x----------------------------------------|
F#|-0-0-0-11b--0-0-0-0--0-0-0-0--0-0-0-0--0-0-0-11b--0-0-0-0--0-0-0-0--------------------|
 B|-0-0-0------0-0-0-0--0-0-0-0--0-0-0-0--0-0-0------0-0-0-0--0-0-0-0--10-10-10-10-10-10-|
    * * *      * * * *  * * * *  * * * *  * * *      * * * *  * * * *  *  *  *  *  *  *

Play Riff 3 x2   "Burning ashes fall and remove us all..."

Riff 4   "Say what you want..."
 B|-------0--------0-------0--------0--------0---------0---------0----------------|
F#|-------0--------0-------0--------0--------0---------0---------0----------------|
 E|-------7b-------3-------5b-------9b-------10b-------12b-------10b--------------|
 B|-------x--------5-------x--------x--------x---------x---------x----------------|
F#|-0-0-0-5b-0-0-0---0-0-0-3b-0-0-0-7b-0-0-0-8b--0-0-0-10b-0-0-0-8b--5*5*5*5*5*5*-|
 B|-0-0-0----0-0-0---0-0-0----0-0-0----0-0-0-----0-0-0-----0-0-0------------------|
    * * *    * * *   * * *    * * *    * * *     * * *     * * *

Play Riff 4 x2   "Take all you want..."

Riff 5   "You see no one..."
 B|----------------------------------------------------------------------------------------------|
F#|----------------------------------------------------------------------------------------------|
 E|----------------------------------------------------------------------------------------------|
 B|----------------------------------------------------------------5--7-7-8-8-10-10-12--12-12-12-|
F#|-5-5-5-5-5-5-5-5-5-5-5-5-5-5-5-7-7-7-8-8-8-10-10-10-5-5-5-5-5-5-5--7-7-8-8-10-10-12--12-12-12-|
 B|-5-5-5-5-5-5-5-5-5-5-5-5-5-5-5-7-7-7-8-8-8-10-10-10-5-5-5-5-5-5-5--7-7-8-8-10-10-12--12-12-12-|
    * * * * * * * * * * * * * * * * * * * * * *  *  *  * * * * * *

Riff 6   "I try to live with my head on..." 
 B|-------------------------------------------------------------------------------|
F#|-------------------------------------------------------------------------------|
 E|------------------8\5---5\3-----------------------------12b----------------12b-|
 B|------------------x-x---x-x-----------------------------x------------------x---|
F#|-0-0-0-0--0-0-0-0-6\3---3\1--------------0-0-0-0--0-0-0-10b-0-0-0-0--0-0-0-10b-|
 B|-0-0-0-0--0-0-0-0-----0-----0-3-1-0-3ph~-0-0-0-0--0-0-0-----0-0-0-0--0-0-0-----|
    * * * *  * * * *     *     * * * *      * * * *  * * *     * * * *  * * *

 B|------------------------------------------------------------------------------------|
F#|------------------------------------------------------------------------------------|
 E|------------------8\5---5\3---------------------------------------------------------|
 B|------------------x-x---x-x---------------------------------------------------------|
F#|-0-0-0-0--0-0-0-0-6\3---3\1--------------0-0-0-0--0-0-0-0---------------------------|
 B|-0-0-0-0--0-0-0-0-----0-----0-3-1-0-3ph~-0-0-0-0--0-0-0-0--5*5*5*4*4*4*3*3*3*2*2*2*-|
    * * * *  * * * *     *     * * * *      * * * *  * * * *

Play Riff 6 x2   "Why try the world..."
Play Riff 2 x1
Play Riff 3 x2   "All this wreckage, won't give solace..."
Play Riff 4 x2   "Say what you want..."
Play Riff 5 x1   "You see no one..."
Play Riff 6 x2   "I try to live with my head on..."

Riff 7 (all palm-muted)
 B|-------------------------------------------------------------------------|
F#|-------------------------------------------------------------------------|
 E|-12-12-12-14-14-14-15-15-15-14-14-14-12-12-12-14-14-14-15-15-15-14-14-14-|
 B|-------------------------------------------------------------------------|
F#|-------------------------------------------------------------------------|
 B|-------------------------------------------------------------------------|

 B|------------------------------------------------------------------------|
F#|------------------------------------------------------------------------|
 E|-11-11-11-11-11-11-11-11-11-11-11-11-9/11-11-11-11-11-11-11-11-11-11-11-|
 B|------------------------------------------------------------------------|
F#|------------------------------------------------------------------------|
 B|------------------------------------------------------------------------|

 B|-------------------------------------------------------------------------|
F#|-------------------------------------------------------------------------|
 E|-12-12-12-14-14-14-15-15-15-14-14-14-12-12-12-14-14-14-15-15-15-14-14-14-|
 B|-------------------------------------------------------------------------|
F#|-------------------------------------------------------------------------|
 B|-------------------------------------------------------------------------|

 B|----------------------------------------------|
F#|----------------------------------------------|
 E|-11-11-11-12-12-12-14-14-14-15-15-15-17-17-17-|
 B|----------------------------------------------|
F#|----------------------------------------------|
 B|----------------------------------------------|

Riff 7 note: a 2nd guitar plays harmonics similar to the ending of the chorus riff and follows the same
             kind of strumming pattern.

Play Riff 1 x1

Riff 8   "For you the guilty one..."
 B|-------------0------------0--------0--------------0------------0--------0--|
F#|-------------0------------0--------0--------------0------------0--------0--|
 E|-------------5b-----------7b-------7b-------------5b-----------7b-------8b-|
 B|-------------x------------x--------x--------------x------------x--------x--|
F#|-0-0-0-0-0-0-3b-0-0-0-0-0-5b-0-0-0-5b-0-0-0-0-0-0-3b-0-0-0-0-0-5b-0-0-0-6b-|
 B|-0-0-0-0-0-0----0-0-0-0-0----0-0-0----0-0-0-0-0-0----0-0-0-0-0----0-0-0----|
    * * * * * *    * * * * *    * * *    * * * * * *    * * * * *    * * *

Play Riff 5 x2   "You see no one..." (2nd time through, play without any palm-mutes)
Play Riff 6 x2   "I try to live with my head on..."
Play Riff 1 x1
Play Riff 8 x1

***************************************************************************************************************
                                              12. SLAVE THE PREY
***************************************************************************************************************

Riff 1
A#|------------------------------------------------------------------------------|
 F|------------------------------------------------------------------------------|
D#|-17---13-13---13/17-17-----13-13---13/17-17---13-13---13/17-17--------8-8-8-8-|
A#|-x----x--x----x--x--x------x--x----x--x--x----x--x----x--x--x---------7-7-7-7-|
 F|-15-0-11-11-0-11/15-15-0-0-11-11-0-11/15-15-0-11-11-0-11/15-15-0-0--0-6-6-6-6-|
A#|----0-------0----------0-0-------0----------0-------0----------0-0--0---------|

Play Riff 1 x4

Riff 2   "Right now..."
A#|-----------------------------------------------|
 F|-----------------------------------------------|
D#|-----------------------------------------------|
A#|-----------------------------------------------| x2
 F|-----------------------------------------------|
A#|-0-0--0--0--0-000--0--0--0-0-0--0--0--0-000--0-|
    * *  *  *  * ***  *  *  * * *  *  *  * ***  *

A#|---------|
 F|---------|
D#|-8-8-8-8-|
A#|-7-7-7-7-|
 F|-6-6-6-6-|
A#|---------|

Riff 3   "Write down..."
A#|--------------------------------------------------------------|
 F|--------------------------------------------------------------|
D#|--------------------------------------------------------------|
A#|-------------7-------------7-------------7--------------------|
 F|-5-------3/5---5-------3/5---5-------3/5---5------------------|
A#|---0--0----------0--0----------0--0----------0--0-5*-5*-5*-5*-|

A#|----------------------------------------------------------|
 F|----------------------------------------------------------|
D#|--------------------------------------------------8-8-8-8-|
A#|-------------7-------------7-------------7--------7-7-7-7-|
 F|-5-------3/5---5-------3/5---5-------3/5---5------6-6-6-6-|
A#|---0--0----------0--0----------0--0----------0--0---------|

Riff 4   "I've lived the life so long..."
A#|---------------------------------------------------------------------------------------|
 F|---------------------------------------------------------------------------------------|
D#|---------------------------------------------------------------------------------------|
A#|-1-1-1-1-1-1-1-1-1-1-1-1-1-1-1-1-1-1-1-1-1-1-1-1-1-1-1-1-1-1-x-1-1-1-1-1-1-1-1-1-1-1-1-|
 F|-x-x-x-x-x-x-x-x-x-x-x-x-x-x-x-x-x-x-x-x-x-x-x-x-x-x-x-x-x-x-x-x-x-x-x-x-x-x-x-x-x-x-x-|
A#|-1-1-1-1-1-1-1-1-1-1-1-1-1-1-1-1-1-1-1-1-1-1-1-1-1-1-1-1-1-1-x-1-1-1-1-1-1-1-1-1-1-1-1-|

A#|------------------------------------------------|
 F|------------------------------------------------|
D#|------------------------------------------------|
A#|-1-1-1/3-3-3-3/5-5-5-5-5-5-5-5/8-8-8-8/10-10-10-|
 F|-x-x-x-x-x-x-x-x-x-x-x-x-x-x-x-x-x-x-x-x--x--x--|
A#|-1-1-1/3-3-3-3/5-5-5-5-5-5-5-5/8-8-8-8/10-10-10-|

Riff 5   "Time to see it clearer now..."
A#|-------------------------------------------------------------|
 F|-------------------------------------------------------------|
D#|-5/7-------------5/7---7/8---5/7-----------------------------|
A#|-x-x---0----0----x-x---x-x---x-x---0----0--------------------|
 F|-3/5-0-0--0-0--0-3/5-0-5/6-0-3/5-0-0--0-0------------3-------|
A#|-----0-0--0-0--0-----0-----0-----0-0--0-0--0-3-5-3-0---5-3-0-|
        *    *    *     *     *     *    *

A#|------------------------------------------------------------------|
 F|------------------------------------------------------------------|
D#|-5/7-------------5/7---7/8---8/10---10/12---12/13-----------------|
A#|-x-x---0----0----x-x---x-x---x-x----x--x----x--x------------------|
 F|-3/5-0-0--0-0--0-3/5-0-5/6-0-6/8--0-8//10-0-10/11-------3---------|
A#|-----0-0--0-0--0-----0-----0------0-------0-------0-3-5---5-0-3b~-|
        *    *    *     *     *      *       *

A#|-------------------------------------------------------------|
 F|-------------------------------------------------------------|
D#|-------------------------------------------------------------|
A#|-5/7---0----0----5/7---7/8---5/7---0----0--------------------|
 F|-3/5-0-0--0-0--0-3/5-0-5/6-0-3/5-0-0--0-0------------3-------|
A#|-----0-0--0-0--0-----0-----0-----0-0--0-0--0-3-5-3-0---5-3-0-|
        *    *    *     *     *     *    *

A#|------------------------------------------------------------------|
 F|------------------------------------------------------------------|
D#|-----------------5/7---7/8---8/10---10/12---12/13-----------------|
A#|-5/7---0----0----x-x---x-x---x-x----x--x----x--x------------------|
 F|-3/5-0-0--0-0--0-3/5-0-5/6-0-6/8--0-8//10-0-10/11-------3---------|
A#|-----0-0--0-0--0-----0-----0------0-------0-------0-3-5---5-0-3b~-|
        *    *    *     *     *      *       *

Play Riff 1 x2
Play Riff 3 x2   "Step down..."

Riff 6   "I've lived the life so long..."
A#|-----------------------------------------------------------------------------------------------------|
 F|-----------------------------------------------------------------------------------------------------|
D#|-------------------------------7h8-7----7------------------------------------------------------------|
A#|-/5~--3h5-5/7~--5h7-7/8~--8h10-------10---10-8-0-/5~--3h5-5/7~--5h7-7/8~--8-8-8/10-10-10-10/12-12-12-|
 F|-----------------------------------------------------------------------------------------------------|
A#|-----------------------------------------------------------------------------------------------------|
                                        *    *  * *

Play Riff 5 x1   "Time to see it clearer now..."

Riff 7
A#|---------------------|
 F|---------------------|
D#|-------------------3-|
A#|-1-1--1--1--1-1-1--1-|
 F|-1-1--1--1--1-1-1--1-|
A#|-1-1--1--1--1-1-1--1-|
    * *  *  *  * * *

Play Riff 7 x4

Riff 8
A#|--------------------------------------------------------------------------------|
 F|-------------0------------0-------------0------------------------------0--------|
D#|-10---------------------------------------10\9-9-9\7-7-7-9/10-------------------|
A#|-x-------3h5---3------3h5---3-------3h5---x--x-x-x-x-x-x-x-x-------3h5---3------|
 F|-8----------------------------5~----------8\\7-7-7\5-5-5-7/8--------------------|
A#|----0--0---------0--0-------------0---------------------------0--0---------0--0-|

A#|-----------------------------------------------0------------------------|
 F|-----0--------------0--------------------------13------10-12-13-12------|
D#|----------------------10\9-9-9\7-7-7-9----------------------------------|
A#|-3h5---3--------3h5---x--x-x-x-x-x-x-x-x-x-x-x--------------------------|
 F|---------5~-----------8\\7-7-7\5-5-5-7-x-x-x-x--------------------------|
A#|-------------0-------------------------x-x-x-x----0--0-------------0--0-|

A#|---------------------------0--0--0--0--0--0--0--0--0--0-----------------------|
 F|-10-12-13-12------10-12-13-12h15-15/17-13-12-12-12-10-9------10-12-13-12------|
D#|------------------------------------------------------------------------------|
A#|------------------------------------------------------------------------------|
 F|------------------------------------------------------------------------------|
A#|-------------0--0---------------------------------------0--0-------------0--0-|

A#|---------------------------0--0--0--0--0--0--0--0--|
 F|-10-12-13-12------10-12-13-12h15-15-15-15/17-17-17-|
D#|---------------------------------------------------|
A#|---------------------------------------------------|
 F|---------------------------------------------------|
A#|-------------0--0----------------------------------|

Play Riff 5 x2   "Time to see it clearer now..."

Riff 9
A#|--------------------------------------------------------------------|
 F|--------------------------------------------------------------------|
D#|-17------------17------------17------------17------10\--------------|
A#|-x-------------x-------------x-------------x-------9\---------------|
 F|-15-0--0--0--0-15-0--0--0--0-15-0--0--0--0-15-0--0-8\---------------|
A#|----0--0--0--0----0--0--0--0----0--0--0--0----0--0-----2*2*2*2*2*2*-|
       *  *  *  *    *  *  *  *    *  *  *  *    *  *

A#|-----------------------------------------------------------|
 F|-----------------------------------------------------------|
D#|-17------------17------------17------------17------8-8-8-8-|
A#|-x-------------x-------------x-------------x-------7-7-7-7-|
 F|-15-0--0--0--0-15-0--0--0--0-15-0--0--0--0-15-0--0-6-6-6-6-|
A#|----0--0--0--0----0--0--0--0----0--0--0--0----0--0---------|
       *  *  *  *    *  *  *  *    *  *  *  *    *  *

Enjoy!!





Добавлено: 21.04.2016
Другие материалы по этой песне:
  • Аккорды и текст

Страница создана 21.04.2016
http://primanota.ru/sevendust/kill-flaw-album-chords.htm
Привет, Гость.
Предлагаем пройти революционный курс по гитаре.
Подарок от PrimaNota.Ru, забирай!