PrimaNota.ru - самый крупный в мире бесплатный архив песенных текстов, аккордов, табулатур и нот


Sevendust - Karma - таба, видео

Регистрация Запомнить меня
Войти через:  Facebook Google Twitter Vk Yandex Mail.ru

Sevendust - Karma - таба, видео

Печатать
Просмотров: 107
Karma - B F# B E F# B

Intro 1  
(Guitar 1)
|--0.---0.---0.---0.---0.---0.---------0--------0.---0.---0.---0.---0.---0.------0----|
|-10.--10.--10.--10.--10.--10.---10/12---10\9--10.--10.--10.--10.--10.--10.-----------|
|--9.---9.---9.---9.---9.---9.------------------9.---9.---9.---9.---9.---9.--7h9---7--|  (x2)
|-------------------------------------------------------------------------------------|
|-------------------------------------------------------------------------------------|
|-------------------------------------------------------------------------------------|

Verse
(Guitar 1)
|--0.---0.---0.---0.---0.---0.---------0--------0.---0.---0.---0.---0.---0.------0----|
|-10.--10.--10.--10.--10.--10.---10/12---10\9--10.--10.--10.--10.--10.--10.-----------|
|--9.---9.---9.---9.---9.---9.------------------9.---9.---9.---9.---9.---9.--7h9---7--|  
|-------------------------------------------------------------------------------------|
|-------------------------------------------------------------------------------------|
|-------------------------------------------------------------------------------------|

|--0.---0.---0.---0.---0.---0.---------0--------0.---0.---0.---0.--------0-------0-----0----0--|
|-10.--10.--10.--10.--10.--10.---10/12---10\9--10.--10.--10.--10.--10/12---12/14---12----10----|
|--9.---9.---9.---9.---9.---9.------------------9.---9.---9.---9.------------------------------|
|----------------------------------------------------------------------------------------------|
|----------------------------------------------------------------------------------------------|
|----------------------------------------------------------------------------------------------|


|----0----0----0----0----0----0----0----0-----0-----0-----0-----0-----0-----0-----0---------|
|-9----9----9----9----9----9----9----9----10----10----10----10----12----12----12----12b14---|
|-------------------------------------------------------------------------------------------|
|-------------------------------------------------------------------------------------------|
|-------------------------------------------------------------------------------------------|
|-------------------------------------------------------------------------------------------|

|--0.---0.---0.---0.---0.---0.---------0--------0.---0.---0.---0.--------0-------0-----0----0--|
|-10.--10.--10.--10.--10.--10.---10/12---10\9--10.--10.--10.--10.--10/12---12/14---15----14----|
|--9.---9.---9.---9.---9.---9.------------------9.---9.---9.---9.------------------------------|
|----------------------------------------------------------------------------------------------|
|----------------------------------------------------------------------------------------------|
|----------------------------------------------------------------------------------------------|

|----0----0----0----0----0----0-------0----0-----0-----0-----0-----0-----0-----0-----0------|
|-12---12---12---12---12---12---12/14---14---10----10----10----10----14----14----17----17---|
|-------------------------------------------------------------------------------------------|
|-------------------------------------------------------------------------------------------|
|-------------------------------------------------------------------------------------------|
|-------------------------------------------------------------------------------------------|


(Guitar 2)
|------------------------------------------------------------------------------------------|
|------------------------------------------------------------------------------------------|
|-9-9-9-9-9-9-9-9-9-9-9-9-9-9-9-9-9-9-9b11-9-9-9-9-9-9-9-9-9-9-9-9-9-9-9-9-9-9-9-9-9-7-7-7-|
|------------------------------------------------------------------------------------------|
|------------------------------------------------------------------------------------------|
|------------------------------------------------------------------------------------------|
  . . . . . . . . . . . . . . . . . .      . . . . . . . . . . . . . . . . . . . . . . . .

|------------------------------------------------------------------------------------------|
|------------------------------------------------------------------------------------------|
|-9-9-9-9-9-9-9-9-9-9-9-9-9-9-9-9-9-9-9b11-9-9-9-9-9-9-9-9-9-9-9-9-9-9-9-9-9-9-7~----------|
|------------------------------------------------------------------------------------------|
|------------------------------------------------------------------------------------------|
|------------------------------------------------------------------------------------------|
  . . . . . . . . . . . . . . . . . .      . . . . . . . . . . . . . . . . . . 
                                                                                 _
|-------------------------------------------------------------|                    \
|-------------------------------------------------------------|                     \
|-9-9-9-9-9-9-9-9-9-9-9-9-11-11-11-11-11-11-11-11-11-11-11-11-|                      |
|-------------------------------------------------------------|                      |
|-------------------------------------------------------------|                      |
|-------------------------------------------------------------|                      |
  . . . . . . . . . . . .  .  .  .  .  .  .  .  .  .  .  .  .                        \ 
                                                                                      }  x2
|----------------------------------------------------------------------------|       /
|----------------------------------------------------------------------------|       |
|-12-12-12-12-12-12-12-12-12-12-12-12-14-14-14-14-14-14-14-14-14-14-14-14b16-|       |
|----------------------------------------------------------------------------|       |
|----------------------------------------------------------------------------|       |
|----------------------------------------------------------------------------|      /
  .  .  .  .  .  .  .  .  .  .  .  .  .  .  .  .  .  .  .  .  .  .  .            _ /
  

Pre Chorus 1
|-------------------------------------|
|-------------------------------------|
|-2.--2.------2\----2.--2.------2\.---|
|-2.--2.--2-0-2\.---2.--2.--2-0-2\.---|
|-2.--2.--2-0-2\.---2.--2.--2-0-2\.---|
          . .               . .

Chorus 
|-----------------------0------------------------0------------------------------|
|-----------------------0------------------------0------------------------------|
|-------------------------------------------------------------------------------|
|-2--2--2--2--2--2--4h5----2--2--2--2--2--2--7\5----------^4b5------------------|
|-2--2--2--2--2--2---------2--2--2--2--2--2-------------------------------------|
|-2--2--2--2--2--2---------2--2--2--2--2--2---------0-0-0-----------------------|
                                                    . . .

|---------------------------------0-------------------------------------------------------|
|---------------------------------0-------------------------------------------------------|
|-----------------------------------------------------------------------------------------|
|-----------------------------4h5----10-10-10-10-10-10-10-10-10-10-10-10-7-7-7-7-7-7-5--0-|
|-0--0--0--0--0--0--0--0--0-0--------10-10-10-10-10-10-10-10-10-10-10-10-7-7-7-7-7-7-5--0-|
|-0--0--0--0--0--0--0--0--0-0--------10-10-10-10-10-10-10-10-10-10-10-10-7-7-7-7-7-7-5--0-|
  .  .  .  .  .  .  .  .  . .

|------|
|------|
|------|
|-2----|
|-2----|
|-2----|

Pre Chorus 2
|-----------------------------------------------------------------------------|
|-----------------------------------------------------------------------------|
|-2.--2.------2\----2.--2.------2\.---2.--2.------2\.---2.--2.------2---------|
|-2.--2.--2-0-2\.---2.--2.--2-0-2\.---2.--2.--2-0-2\.---2.--2.--2-0-2---0-0-0-|
|-2.--2.--2-0-2\.---2.--2.--2-0-2\.---2.--2.--2-0-2\.---2.--2.--2-0-2---0-0-0-|
          . .               . .               . .               . .     . . .

Bridge 1
|-------------------------------------------------|
|-------------------3-----------------------------|
|-------------------------------------x-x-x-x-----|  (x3)
|-2-0-2-3-2-0-2-0-2---2-0-2-0-2-3---2-x-x-x-x-----|
  . . . . . . . . .   . . . . .     .

|-------------------------------------\-\-\-\-----|
|-------------------------------------\-\-\-\-----|
|-------------------------------------\-\-\-\-----|  (x3)
|-2-0-2-3-2-0-2-0-2-3-2-0-8-----------\-\-\-\-----|
  . . . . . . . . . . . . 

|-----------------------------------------------------------------|
|-5-5-5-5-5-5-5-5-5-5-5-5-5-5-5-5-3-3-3-3-3-3-3-3-----------------|
|-5-5-5-5-5-5-5-5-5-5-5-5-5-5-5-5-3-3-3-3-3-3-3-3-1-1-1-1-1-1-1-1-|
|-5-5-5-5-5-5-5-5-5-5-5-5-5-5-5-5-3-3-3-3-3-3-3-3-1-1-1-1-1-1-1-1-|
                                                  . . . . . . . . 

Solo (Not 100% positive on this, there are so many different 
      guitars overdubbed here, but here's my best effort)
 
(Guitar 1) x2
|----------------------7-------------------------------|
|-10-7-7-5-7-7-10-7-10---10-7-5-7-7-8---7-5-7-7-10-7-5-|
|------------------------------------------------------|
|------------------------------------------------------|
|------------------------------------------------------|
|------------------------------------------------------|

|------------------------------------------------------|
|-10-7-7-5-7-7-10-7-7-5-7-7----------------------------|
|---------------------------7.--7.--7--7--7.--7.--7--7-|
|---------------------------0.--0.--0--0--0.--0.--0--0-|
|------------------------------------------------------|
|------------------------------------------------------|
  
(Guitar 2) x2
|-----------------------------------------------|
|-----------------------------------------------|
|-----------------------------------------------|
|-------------------3---------------------------|
|-----------------------------------------------|
|-2-0-2-3-2-0-2-0-2---2-0-2-0-2-3---2-2-0-2-1---|

|-----------------------------------------------|
|-----------------------------------------------|
|-----------------------------------------------|
|-------------------3---------------------------|
|-------------------------0--0--0-0-0--0--0-0---|
|-2-0-2-3-2-0-2-0-2---2-0-0--0--0-0-0--0--0-0---|
                          .  .  . . .  .  . .

Bridge 2
(Guitar 1)
|-0-----------0---0------------0---0-----------0-------0---------------|
|-0-------------0-0--------------0-0-----------0-------0---------------|
|-4---------------4----------------2-----------7-------5---------------|
|-2---------------2----------------0-----------7-------5---------------|
|-2---------------2----------------0-----------5-------3---------------|
|-2---------------2----------------0-----------0-----------------------|

(Guitar 2 with whammy pedal up one octave)
|-------------------------------------12-----------7---7---7---7---7---|
|-------------------------10-------12----12\10-5/7-------5---5---5---5-|
|-9-------7-7-7-7-9-9-9-9----9-9-9-------------------------------------|
|----------------------------------------------------------------------|
|----------------------------------------------------------------------|
|----------------------------------------------------------------------|


|--------------------------------------------------5-5-5-5.--------|
|------------------------------5/7---7-------------5-5-5-5.--------|
|------9\5---5\3---3/5---5/6-----------5-----8\5---3-3-3-3.--------|
|-0-0------0-----0-----0-----0-----0-----0-0-----0-----------------|
  . .      .     .     .     .     .     . .     .

Start of Last Chorus
|-------------0------------------------------------------------------------|
|-------------0------------------------------------------------------------|
|-------------2------------------------------------------------------------|
|-2-----2-----0-------10-10-10-10-10-10-10-10-10-10-10-10-7-7-7-7-7-7-5--0-|
|-2-----2-----0-------10-10-10-10-10-10-10-10-10-10-10-10-7-7-7-7-7-7-5--0-|
|-2-----2-----0-------10-10-10-10-10-10-10-10-10-10-10-10-7-7-7-7-7-7-5--0-|

Ending
|-10-10-10-10-10-10-10-10-10-10-10-10-7-7-7-7-7-7-5--0-|
|-10-10-10-10-10-10-10-10-10-10-10-10-7-7-7-7-7-7-5--0-|
|-10-10-10-10-10-10-10-10-10-10-10-10-7-7-7-7-7-7-5--0-|

|------------------------------------------------------------------------|
|------------------------------------------------------------------------|
|-2.--2.------2\----2.--2.------2\.---2.--2.------2\.---2.--2.------2\.--|
|-2.--2.--2-0-2\.---2.--2.--2-0-2\.---2.--2.--2-0-2\.---2.--2.--2-0-2\.--|
|-2.--2.--2-0-2\.---2.--2.--2-0-2\.---2.--2.--2-0-2\.---2.--2.--2-0-2\.--|
          . .               . .               . .               . .    

|--------------------------------------------------|
|-2.--2.--2-0-2.--2.--2-0-2.--2.--2-0-2.--2.--2-0--|
|-2.--2.--2-0-2.--2.--2-0-2.--2.--2-0-2.--2.--2-0--|
  .   .   . . .   .   . . .   .   . . .   .   . .

|-------------------------2.--2.--2-0-2.--2.--2-0.-|
|-2.--2.--2-0-2.--2.--2-0-2.--2.--2-0-2.--2.--2-0.-|
|-2.--2.--2-0-2.--2.--2-0-2.--2.--2-0-2.--2.--2-0.-|
  .   .   . . .   .   . .    


X - muted string                (note). - immediately mute note
/ - slide up                    (note)  - palm mute
\ - slide down                    .
b - bend,   
r - release                     (note)* - harmonic                             
h - hammer on                   
p - pull off                   ^(note)  - pinch harmonic    
Добавлено: 15.03.2012
Другие материалы по этой песне:
  • Аккорды и текст

Страница создана 15.03.2012
http://primanota.ru/sevendust/karma-chords.htm
Привет, Гость.
Предлагаем пройти революционный курс по гитаре.
Подарок от PrimaNota.Ru, забирай!