PrimaNota.ru - самый крупный в мире бесплатный архив песенных текстов, аккордов, табулатур и нот


Sevendust - Heart In Your Hands - таба, видео

Регистрация Запомнить меня
Войти через:  Facebook Google Twitter Vk Yandex Mail.ru

Sevendust - Heart In Your Hands - таба, видео

Печатать
Просмотров: 60
-------------------------------------------------------------------------------
                            Heart In Your Hands
-------------------------------------------------------------------------------

Artist: SEVENDUST

Album: Chapter VII: Hope & Sorrow (best buy exclusive bonus track)  (2008)

Transcribed by Ben Huhndorf


Tuning: B F# B E G# C#

Guitar 1 - rhythm - distorted
Guitar 2 - rhythm - distorted
Guitar 3 - Lead - w/delay & reverb & chorus
Guitar 4 - Lead - distorted w/delay
Guitar 5 - other - clean w/reverb
Guitar 6 - other - distorted w/phazer

Very underated song. Full of epic riffs. Can't beleive it's a b-side. Though I'm 100% on
intro & 2nd part of the bridge (here is just a rough approximation)
Other than that, this song is fairly easy and fun to play, the chord proggressions in
bridge are quite tricky & just watch out for the changes here and there.
& Sorry about the lead parts being a little messy. its difficult to trascribe parts that
in double digits!

INTRO

   Guitar 1 & 2
C#|--------------------------------------------------------------|
G#|--------------------------------------------------------------|
e |--------------------------------------------------------------|
B |7-7-7-2-2-2-2/7-7-7-7-7-7-7-7---------------------------------|
F#|5-5-5-0-0-0-0/5-5-5-5-5-5-5-5-7\5-5-5-5-5-5-5-5-5-5-5-5-5-5-5-|
B |------------------------------7\5-5-5-5-5-5-5-5-5-5-5-5-5-5-5-|

pm:  . .   . .     . .   . .         . . . . . . . . . . . . .


C#|--------------------------------------------------------------|
G#|--------------------------------------------------------------|
e |--------------------------------------------------------------|
B |7-7-7-2-2-2-2/7-7-7-7-7-7-7-7---------------------------------|
F#|5-5-5-0-0-0-0/5-5-5-5-5-5-5-5-7\5-5-5-5-5-5\4-4-4-4-4-4/8-8-8-|
B |------------------------------7\5-5-5-5-5-5\4-4-4-4-4-4/8-8-8-|

pm:  . .   . .     . .   . .         . . . .     . . . .     . .


FIRST VERSE

("Smother the feelin inside...")

   Guitar 3
C#|---6--6--5--5--3--3~-------5--5--3--3---------------|
G#|-3--3--3--3--3--3~---------------------3--3h4~------|
e |-------------------------5--5--5--5--5--5-----------|
B |----------------------------------------------------|
F#|----------------------------------------------------|
B |----------------------------------------------------|

C#|---6--6--5--5--3--3~-------5--5--3--3---------------|
G#|-3--3--3--3--3--3~---------------------3--3h4~------|
e |-------------------------5--5--5--5--5--5-----------|
B |----------------------------------------------------|
F#|----------------------------------------------------|
B |----------------------------------------------------|

C#|---6--6--5--5--3--3~-------5--5--3--3---------------|
G#|-3--3--3--3--3--3~---------------------3--3h4~------|
e |-------------------------5--5--5--5--5--5-----------|
B |----------------------------------------------------|
F#|----------------------------------------------------|
B |----------------------------------------------------|

("but it's killing me...")

C#|---6--6--5--5--3--3~-------5--5--3--3--3------------|
G#|-3--3--3--3--3--3~------------------------6---6~----|
e |-------------------------5--5--5--5--5--5--5~-------|
B |----------------------------------------------------|
F#|----------------------------------------------------|
B |----------------------------------------------------|

CHORUS

("Smile when you look at me...")

   Guitar's 1 & 2
C#|---------------------------------------------------|
G#|---------------------------------------------------|
e |---------------------------------------7b----------|
B |-0---x-x-8---8-8-8-x-x-10--10-10-x-5------5-7b8----|
F#|-0---x-x-8---8-8-8-x-x-10--10-10-x-5---------------|
B |-0---x-x-8---8-8-8-x-x-10--10-10-x-5---------------|

C#|---------------------------------------------------|
G#|---------------------------------------------------|
e |---------------------------------------------------|
B |-0---x-x-10--10-10-10-x-x-7--8-7-5-3---------------|
F#|-0---x-x-10--10-10-10-x-x-7--------3---------------|
B |-0---x-x-10--10-10-10-x-x-7--------3--0-3-0-3-1----|

("I dream when the time will be...")

C#|---------------------------------------------------|
G#|---------------------------------------------------|
e |---------------------------------------7b----------|
B |-0---x-x-8---8-8-8-x-x-10--10-10-x-5------5-7b8----|
F#|-0---x-x-8---8-8-8-x-x-10--10-10-x-5---------------|
B |-0---x-x-8---8-8-8-x-x-10--10-10-x-5---------------|

C#|---------------------------------------------------|
G#|---------------------------------------------------|
e |---------------------------------------------------|
B |-0---x-x-10--10-10-10-x-x-7--8-7-5-3----0---0h1/---|
F#|-0---x-x-10--10-10-10-x-x-7--------3--3---3--------|
B |-0---x-x-10--10-10-10-x-x-7--------3---------------|


POST CHORUS

("Til then I'll simply just wait...")

   Guitars 1 & 2
C#|--------------------------------------------------------------|
G#|--------------------------------------------------------------|
e |--------------------------------------------------------------|
B |7-7-7-2-2-2-2/7-7-7-7-7-7-7-7---------------------------------|
F#|5-5-5-0-0-0-0/5-5-5-5-5-5-5-5-7\5-5-5-5-5-5-5-5-5-5-5-5-5-5-5-|
B |------------------------------7\5-5-5-5-5-5-5-5-5-5-5-5-5-5-5-|
pm:  . .   . .     . .   . .         . . . . . . . . . . . . . .
  |
  | Guitar 4
C#|--------------------------------------------------------------|
G#|--------------------------------------------------------------|
e |14-14-14-14-14b14b14b14b14b14b--------------------------------|
B |------------------------------12-12-12-12-12-12b12b12b12b12b--|
F#|--------------------------------------------------------------|
B |--------------------------------------------------------------|

  | Guitar 1 & 2
C#|--------------------------------------------------------------|
G#|--------------------------------------------------------------|
e |--------------------------------------------------------------|
B |7-7-7-2-2-2-2/7-7-7-7-7-7-7-7-------------------------1-1--1--|
F#|5-5-5-0-0-0-0/5-5-5-5-5-5-5-5-7\5-5-5-5-5-5\4-4-4-4/1-1-1--1--|
B |------------------------------7\5-5-5-5-5-5\4-4-4-4/1-1-1--1--|
pm:  . .   . .     . .   . .         . . . .     . .
  |
  | Guitar 4
C#|--------------------------------------------------------------|
G#|--------------------------------------------------------------|
e |1414141414141414b14b14b14b14b14h1212121212h11111111h----------|
B |----------------------------------------------------131313-13-|
F#|--------------------------------------------------------------|
B |--------------------------------------------------------------|

PRE VERSE

("close to me...")

   Guitar 3
C#|--------------------------------------------------------------|
G#|--------------------------------------------------------------|
e |-14~-------------------12~------------------15~---------------|
B |--------------------------------------------------------------|
F#|--------------------------------------------------------------|
B |--------------------------------------------------------------|

("you come close to me...")

    Guitar 3
C#|--------------------------------------------------------------|
G#|--------------------------------------------------------------|
e |-14~--------------------12~-----------------------------------|
B |--------------------------------------------13~---------------|
F#|--------------------------------------------------------------|
B |--------------------------------------------------------------|
  |
  | Guitar 5
C#|--------------------------------------------------------------|
G#|--------------------------------------------------------------|
e |---------------5*---------------------------------------------|
B |-2.4*-2.7*-3*------5*-----------------------------------------|
F#|--------------------------------------------------------------|
B |-----------------------2.7*-----------------------------------|


Second verse


("Strangling me with your eyes...")

   Guitar 3
C#|---6---6---5---5---3---3~-----5---5---3---3-------------------|
G#|-3---3---3---3---3---3~-----------------------3--3h4~---------|
e |----------------------------5---5---5---5---5---5-------------|
B |--------------------------------------------------------------|
F#|--------------------------------------------------------------|
B |--------------------------------------------------------------|

C#|---6---6---5---5---3---3~-----5---5---3---3-------------------|
G#|-3---3---3---3---3---3~-----------------------3--3h4~---------|
e |----------------------------5---5---5---5---5---5-------------|
B |--------------------------------------------------------------|
F#|--------------------------------------------------------------|
B |--------------------------------------------------------------|


   Guitar 3
C#|---6---6---5---5---3---3~-----5---5---3---3-------------------|
G#|-3---3---3---3---3---3~-----------------------3--3h4~---------|
e |----------------------------5---5---5---5---5---5-------------|
B |--------------------------------------------------------------|
F#|--------------------------------------------------------------|
B |--------------------------------------------------------------|
  |
  |Guitar 1 - All PM (save slides)
C#|--------------------------------------------------------------|
G#|--------------------------------------------------------------|
e |--------------------------------------------------------------|
B |--------------------------------------------------------------|
F#|-5-5-5---5-5-5---5-5-3-5-6-5-3---3-3-3---3-3-3---5-5-3-5/6b---|
B |--------------------------------------------------------------|


("Always killing me...")

   Guitar 3
C#|---6---6---5---5---3---3~------5---5---3---3---3--------------|
G#|-3---3---3---3---3---3~----------------------------6---6~-----|
e |-----------------------------5---5---5---5---5---5---5~-------|
B |--------------------------------------------------------------|
F#|--------------------------------------------------------------|
B |--------------------------------------------------------------|
  |
  |Guitar 1 - All PM (save slides)
C#|--------------------------------------------------------------|
G#|--------------------------------------------------------------|
e |--------------------------------------------------------------|
B |--------------------------------------------------------------|
F#|-5-5-5---5-5-5---5-5-3-5-6-5-3---3-3-3---3-3-3---5-5-3/5/8----|
B |--------------------------------------------------------------|


PRE CHORUS

("tear away...")

    Guitar 6
C#|----------------------------------------------|
G#|----------------------------------------------|
e |----------------------------------------------|
B |-12-13-12-10-12-13-12-10-12-10-12-10-12-------|
F#|----------------------------------------0-0-0-|
B |----------------------------------------0-0-0-|

pm:                                        . . .


CHORUS

("Smile when you look at me...")

    Guitars 1 & 2
C#|---------------------------------------------------|
G#|---------------------------------------------------|
e |---------------------------------------7b----------|
B |-0---x-x-8---8-8-8-x-x-10--10-10-x-5------5-7b8----|
F#|-0---x-x-8---8-8-8-x-x-10--10-10-x-5---------------|
B |-0---x-x-8---8-8-8-x-x-10--10-10-x-5---------------|

C#|---------------------------------------------------|
G#|---------------------------------------------------|
e |---------------------------------------------------|
B |-0---x-x-10--10-10-10-x-x-7--8-7-5-3---------------|
F#|-0---x-x-10--10-10-10-x-x-7--------3---------------|
B |-0---x-x-10--10-10-10-x-x-7--------3--0-3-0-3-1----|

("I dream when the time will be...")

    Guitars 1 & 2
C#|---------------------------------------------------|
G#|---------------------------------------------------|
e |---------------------------------------7b----------|
B |-0---x-x-8---8-8-8-x-x-10--10-10-x-5------5-7b8----|
F#|-0---x-x-8---8-8-8-x-x-10--10-10-x-5---------------|
B |-0---x-x-8---8-8-8-x-x-10--10-10-x-5---------------|
  |
  | Guitar 4
C#|---------------------------------------|
G#|---------------------------------------|
e |-9-10-9-12-10-9-9-10-9-12-10-9-10-9-10-| <--- This figure is repeated in constant 8th
thoughout chorus
B |---------------------------------------|
F#|---------------------------------------|
B |---------------------------------------|

    Guitar 1 & 2
C#|---------------------------------------------------|
G#|---------------------------------------------------|
e |---------------------------------------------------|
B |-0---x-x-10--10-10-10-x-x-7--8-7-5-3----0---0h1/---|
F#|-0---x-x-10--10-10-10-x-x-7--------3--3---3--------|
B |-0---x-x-10--10-10-10-x-x-7--------3---------------|
  |
  | Guitar 4
C#|---------------------------------------|
G#|---------------------------------------|
e |-9-10-9-12-10-9-9-10-9-12-10-9-10-9-10-|
B |---------------------------------------|
F#|---------------------------------------|
B |---------------------------------------|

BRIDGE

    Guitars 1 & 2
C#|--------------------------------------------------------------|
G#|--------------------------------------------------------------|
e |--------------------------------------------------------------|
B |--------------------------------------------------------------|
F#|-0-4-1-0---0-1-7-5-4---0-1-4-1-4-0-4-1-0---0-1-7-5-4---0-1----|
B |-0-4-1-0---0-1-7-5-4---0-1-4-1-4-0-4-1-0---0-1-7-5-4---0-1-4b-|
  |
  | Guitar 4  - All TREMOLO picked
C#|--------------------------------------------------------------|
G#|--------------------------------------------------------------|
e |-14~-------------------12~-------11~-------------------8~-----|
B |--------------------------------------------------------------|
F#|--------------------------------------------------------------|
B |--------------------------------------------------------------|

    Guitars 1 & 2
C#|--------------------------------------------------------------|
G#|--------------------------------------------------------------|
e |--------------------------------------------------------------|
B |--------------------------------------------------------------|
F#|-0-4-1-0---0-1-7-5-4---0-1-4-1-4-0-4-1-0---0-1-7-5-4---0-1----|
B |-0-4-1-0---0-1-7-5-4---0-1-4-1-4-0-4-1-0---0-1-7-5-4---0-1-4b-|
  |
  | Guitar 4  - All TREMOLO picked
C#|--------------------------------------------------------------|
G#|--------------------------------------------------------------|
e |-7~-----------------------------------14-15-14-15-14-15-14-15-|
B |--------------------------------------------------------------|
F#|--------------------------------------------------------------|
B |--------------------------------------------------------------|


 ("...fall                    when the ground breaks I won't...")

    Guitars 1 & 2
C#|--------------------------------------------------------------|
G#|--------------------------------------------------------------|
e |--------------------------------------------------------------|
B |--------------------------------------------------------------|
F#|-0-4-1-0---0-1-7-5-4---0-1-4-1-4-0-4-1-0---0-1-7-5-4---0-1----|
B |-0-4-1-0---0-1-7-5-4---0-1-4-1-4-0-4-1-0---0-1-7-5-4---0-1-4b-|


 ("...see                      When the light fades  I won't...")

    Guitars 1 & 2
C#|--------------------------------------------------------------|
G#|--------------------------------------------------------------|
e |--------------------------------------------------------------|
B |-0~-----------------------------------------------------------|
F#|-0~----0-7-5-4-0-4---0-4-1-0---0-1-7-5-4---0-1-4-1-0-1-3-1----|
B |-0~----0-7-5-4-0-4---0-4-1-0---0-1-7-5-4---0-1-4-1-0-1-3-1-4b-|


 ("...die                        When I'm stripped of desire, I will stay with you...")

    Guitars 1 & 2
C#|------------------------------------------------------------------------------------|
G#|------------------------------------------------------------------------------------|
e |------------------------------------------------------------------------------------|
B |7-7-7-2-2-2-2/7-7-7-7-7-7-7-7-------7-----------7-----------------------------------|
F#|5-5-5-0-0-0-0/5-5-5-5-5-5-5-5-7-7-7-7-7-7-7-7-7-7-7-7-7-7-7-7-7-7-8-7-7-7-7-7-8-7---|
B |------------------------------7-7-7---7-7-7-7-7---7-7-7-7-7-7-7-7-7-7-7-7-7-7-7-----|
pm:  . .   . .     . .   . .       . .   . .   . .   . .   . .   . .   . .   . .    . .

------------------------------------------------|
------------------------------------------------|
------------------------------------------------|
-----------------------------------8-8-8-8------|
7-7-7-7-7-7-107-7-7-7-7-107-7-7-7-7-------------|
7-7-7-7-7-7-7-7-7-7-7-7-7-7-7-7-7-7-7-----------|
 . .   .. . .   . .

CHORUS

("Smile when you look at me...")

   Guitars 1 & 2
C#|---------------------------------------------------|
G#|---------------------------------------------------|
e |---------------------------------------7b----------|
B |-0---x-x-8---8-8-8-x-x-10--10-10-x-5------5-7b8----|
F#|-0---x-x-8---8-8-8-x-x-10--10-10-x-5---------------|
B |-0---x-x-8---8-8-8-x-x-10--10-10-x-5---------------|
  |
  | Guitar 4
C#|---------------------------------------|
G#|---------------------------------------|
e |-9-10-9-12-10-9-9-10-9-12-10-9-10-9-10-|
B |---------------------------------------|
F#|---------------------------------------|
B |---------------------------------------|

    Guitars 1 & 2
C#|---------------------------------------------------|
G#|---------------------------------------------------|
e |---------------------------------------------------|
B |-0---x-x-10--10-10-10-x-x-7--8-7-5-3---------------|
F#|-0---x-x-10--10-10-10-x-x-7--------3---------------|
B |-0---x-x-10--10-10-10-x-x-7--------3--0-3-0-3-1----|
  |
  | Guitar 4
C#|---------------------------------------|
G#|---------------------------------------|
e |-9-10-9-12-10-9-9-10-9-12-10-9-10-9-10-|
B |---------------------------------------|
F#|---------------------------------------|
B |---------------------------------------|

("I dream when the time will be...")

    Guitars 1 & 2
C#|---------------------------------------------------|
G#|---------------------------------------------------|
e |---------------------------------------7b----------|
B |-0---x-x-8---8-8-8-x-x-10--10-10-x-5------5-7b8----|
F#|-0---x-x-8---8-8-8-x-x-10--10-10-x-5---------------|
B |-0---x-x-8---8-8-8-x-x-10--10-10-x-5---------------|
  |
  | Guitar 4
C#|---------------------------------------|
G#|---------------------------------------|
e |-9-10-9-12-10-9-9-10-9-12-10-9-10-9-10-|
B |---------------------------------------|
F#|---------------------------------------|
B |---------------------------------------|

   Guitars 1 & 2
C#|---------------------------------------------------|
G#|---------------------------------------------------|
e |---------------------------------------------------|
B |-0---x-x-10--10-10-10-x-x-8--8-8-8--8--8-7--7-7-7--|
F#|-0---x-x-10--10-10-10-x-x-8--8-8-8--8--8-7--7-7-7--|
B |-0---x-x-10--10-10-10-x-x-8--8-8-8--8--8-7--7-7-7--|
  |
  | Guitar 4
C#|---------------------------------------|
G#|---------------------------------------|
e |-9-10-9-12-10-9-9-10-9-12-10-9-10-9-10-|
B |---------------------------------------|
F#|---------------------------------------|
B |---------------------------------------|

OUTRO

 ("I'LL simply just wait...")

C#|--------------------------------------------------------------|
G#|--------------------------------------------------------------|
e |--------------------------------------------------------------|
B |-0~-----------------------------------------------------------|
F#|-0~----0-7-5-4-0-4---0-4-1-0---0-1-7-5-4---0-1-4-1-0-1-3-1----|
B |-0~----0-7-5-4-0-4---0-4-1-0---0-1-7-5-4---0-1-4-1-0-1-3-1-4b-|

C#|--------------------------------------------------------------|
G#|--------------------------------------------------------------|
e |--------------------------------------------------------------|
B |--------------------------------------------------------------|
F#|-0-4-1-0---0-1-7-5-4---0-1-4-1-4-0-4-1-0---0-1-7-5-4---0-1----|
B |-0-4-1-0---0-1-7-5-4---0-1-4-1-4-0-4-1-0---0-1-7-5-4---0-1-4b-|


| /  slide up
| \  slide down
| h  hammer-on
| p  pull-off
| ~  vibrato
| *  harmonic
| x  Mute note
| b  bend note

===============================================================================
Добавлено: 17.07.2013
Другие материалы по этой песне:
  • Аккорды и текст

Страница создана 17.07.2013
http://primanota.ru/sevendust/heart-in-your-hands-chords.htm
Привет, Гость.
Предлагаем пройти революционный курс по гитаре.
Подарок от PrimaNota.Ru, забирай!