PrimaNota.ru - самый крупный в мире бесплатный архив песенных текстов, аккордов, табулатур и нот


Sevendust - Forget - таба, видео

Регистрация Запомнить меня
Войти через:  Facebook Google Twitter Vk Yandex Mail.ru

Sevendust - Forget - таба, видео

Печатать
Просмотров: 58
Sevendust: Forget

Transcribed by: mysticguitar77

Facebook: https://www.facebook.com/MysticGuitar77
YouTube Channel: https://www.youtube.com/user/MysticGuitar77

Date last modified: October 3, 2015

Tuning: Modified Drop A# (G,F,A#,D#,G,C) *6th string tuned down to G from A# normally

Intro
 C|----------------------------------------------------------|
 G|----------------------------------------------------------|
D#|----------------------------------------------------------|
A#|----------------------------------------------------------|
 F|----------------------------------------------------------|
 G|-0-0-0-0--0-0-0-0-0-0--0-0-0-0--0-0-0-0-0-0--0-0-0--0-0-0-|

Riff 1   "Swallow your pride and denial..."
 C|------------------------------------------------------------------------------------------------|
 G|------------------------------------------------------------------------------------------------|
D#|------------------------------------------------------------------------------------------------|
A#|------------------------------------------------------------------------------------------------|
 F|----------------------------------------------------------10-10-10-10---10-10-10-10-10-10-9-9-9-|
 G|-0-0-0-0--0-0-0-0-0-0--0-0-0-0--0-0-0-0-0-0--0-0-0--0-0-0-8--8--8--8--0-7--7--7--7--7--7--7-7-7-|

 C|-------------------------------------------------------------------|
 G|-------------------------------------------------------------------|
D#|-------------------------------------------------------------------|
A#|-------------------------------------------------------------------|
 F|-----------------------------10-10-10-10---10-10-10-10-10-10-9-9-9-|
 G|-0-0-0-0--0-0-0-0-0-0--0-0-0-8--8--8--8--0-7--7--7--7--7--7--7-7-7-|

Play Riff 1 x2   "Empathy is wasted as we expire..."

Riff 2
 C|------------------------------------------|
 G|------------------0-----------------------|
D#|--------------------------0---------------|
A#|------------------------4---4-------------|
 F|------------------------------------------|
 G|-0--0--0--0--0--4---4-3-------8-0-0-0-0-7-|
                                   * * * *

Riff 3   "Cut the ties that burn you to the core..."
 C|-0----------0----------0----------0----------0-------------|
 G|-15---------15---------15---------15---------15------------|
D#|-18---------18---------18---------18---------18------------|
A#|------------------------------------------------x-x--x-x-x-|
 F|------------------------------------------------x-x--x-x-x-|
 G|----0-0-0-0----0-0-0-0----0-0-0-0----0-0-0-0----x-x--x-x-x-|
       * * * *    * * * *    * * * *    * * * *

 C|-0----------0----------0----------0----------0------0--0--0--0--|
 G|-15---------15---------15---------15---------15-----0--0--0--0--|
D#|-18---------18---------18---------18---------18-----12-12-12-12-|
A#|----------------------------------------------------------------|
 F|----------------------------------------------------------------|
 G|----0-0-0-0----0-0-0-0----0-0-0-0----0-0-0-0----0-0-------------|
       * * * *    * * * *    * * * *    * * * *    * *

Play Riff 3 x2   "We decide where we go from here..."

Riff 4   "So taste these words like fire..."
 C|-------------------------------------------------------------------------------|
 G|-------------------------------------------------------------------------------|
D#|-------------------------------------------------------------------------------|
A#|-------------------------------------------------------------------------------|
 F|-2--2--2-2-2-2-2-2-9--9--9-9-9-9-9-9-10--10--10-10-10-10-10-10-7--7--7-7-7-7-9-|
 G|-0--0--0-0-0-0-0-0-7--7--7-7-7-7-7-7-8---8---8--8--8--8--8--8--5--5--5-5-5-5-7-|

 C|-------------------------------------------------------------------------------|
 G|-------------------------------------------------------------------------------|
D#|-------------------------------------------------------------------------------|
A#|-------------------------------------------------------------------------------|
 F|-2--2--2-2-2-2-2-2-9--9--9-9-9-9-9-9-10--10--10-10-10-10-10-10-7--7--7-7-7-7-5-|
 G|-0--0--0-0-0-0-0-0-7--7--7-7-7-7-7-7-8---8---8--8--8--8--8--8--5--5--5-5-5-5-3-|

Play Riff 4 x2   "The days we've lost are far behind..."
Play Riff 1 x2   "With empty eyes you run from a ghost..."
Play Riff 2 x1
Play Riff 3 x2   "Do you hear them crying out for more..."
Play Riff 4 x2   "So taste these words like fire..."

Solo rhythm
 C|------------------------------------------------|
 G|------------------------------------------------|
D#|-12\---12\--------------------------------------|
A#|-11\---11\--------------------------------------|--------------|
 F|-10\---10\--------------------------------------|              |
 G|-----0-----0--0-0-0-0--0--0-0-0-0--0--0-0-0-0-0-|              |
                                                                  | x2
 C|----------------------------------------------|                |
 G|----------------------------------------------|                |
D#|-12\----12\----------7---------7--------------|----------------|
A#|-11\----11\----------6---------6--------------|
 F|-10\----10\----------5---------5--------------|
 G|-----0------0--0-0-0---0-0-0-0---0--0-0-0-0-0-|

 C|-0----------0----------0----------0----------0-------------|
 G|-15---------15---------15---------15---------15------------|
D#|-18---------18---------18---------18---------18------------|
A#|------------------------------------------------x-x--x-x-x-|
 F|------------------------------------------------x-x--x-x-x-|
 G|----0-0-0-0----0-0-0-0----0-0-0-0----0-0-0-0----x-x--x-x-x-|
       * * * *    * * * *    * * * *    * * * *

 C|-0----------0----------0----------0----------0----------------------|
 G|-15---------15---------15---------15---------15---------------------|
D#|-18---------18---------18---------18---------18---------------------|
A#|--------------------------------------------------------------------|
 F|------------------------------------------------------------------\-|
 G|----0-0-0-0----0-0-0-0----0-0-0-0----0-0-0-0----0-0-0-0-0-0-0-----\-|
       * * * *    * * * *    * * * *    * * * *    * * * * * * *

Solo
 C|-----------------------------------------------------------------------------|
 G|-10b12---7~--5h7-7b8-19*--5h7p5-------12--14b15---17-----------12--------14\-|
D#|--------------------------------8--9------------------14-16----x---------x---|
A#|------------------------------------------------------------12-12--12/14-14\-|
 F|-----------------------------------------------------------------------------|
 G|-----------------------------------------------------------------------------|
                        ^ tap harmonic on 19th fret while holding the bend

 C|-12b13r12b13--15----14----12--------12----------------------------|
 G|-----------------15----14----12--15----15-14-15-14-12----12-x-12~-|
D#|------------------------------------------------------14----------|
A#|------------------------------------------------------------------|
 F|------------------------------------------------------------------|
 G|------------------------------------------------------------------|

 C|----/9----/10------------------------------19--21h22----|
 G|---------------8------8--10-h12--------/19-----------19-|
D#|-/7----/9---------11------------11~---------------------|
A#|--------------------------------------------------------|
 F|--------------------------------------------------------|
 G|--------------------------------------------------------|

 C|-14h15p14----14----------------------------------10~----12h14-----|
 G|----------17----17-15-17-15-17/19-17-15-17-15--14--14~--------12~-|
D#|------------------------------------------------------------------|
A#|------------------------------------------------------------------|
 F|------------------------------------------------------------------|
 G|------------------------------------------------------------------|

 C|-14p12-------15p12-------17p13-------19p15-------19/22-22b23-22~-|
 G|-------14p12-------15p12-------17p13-------19p15-----------------|
D#|-----------------------------------------------------------------|
A#|-----------------------------------------------------------------|
 F|-----------------------------------------------------------------|
 G|-----------------------------------------------------------------|

 C|----21-------19~-/21~-/22~-24---24b25~------|
 G|-19----19-17--------------------------------|
D#|--------------------------------------------|
A#|--------------------------------------------|
 F|-----------------------------------------\\-|
 G|-----------------------------------------\\-|

Riff 5   "So taste these words like fire..."
 C|------------------------------------------|
 G|------------------------------------------|
D#|------------------------------------------|
A#|------------------------------------------|
 F|-2~---2-2-9~---9-9-10\-7~--7/9-7---/12-12-|
 G|-0~---0-0-7~---7-7-8\\-5~--5/7-5---/10-10-|

Play Riff 5 x2   "The burden is gone..."
Play Riff 4 x2   "So taste these words like fire..."
Play Riff 3 x1   (gets cut short to end song and a big whammy dive bomb)

Enjoy!!
Добавлено: 21.04.2016
Другие материалы по этой песне:
  • Аккорды и текст

Страница создана 21.04.2016
http://primanota.ru/sevendust/forget-chords.htm
Привет, Гость.
Предлагаем пройти революционный курс по гитаре.
Подарок от PrimaNota.Ru, забирай!