PrimaNota.ru - самый крупный в мире бесплатный архив песенных текстов, аккордов, табулатур и нот


Sevendust - Forever - текст песни, таба, видео

Регистрация Запомнить меня
Войти через:  Facebook Google Twitter Vk Yandex Mail.ru

Sevendust - Forever - текст песни, таба, видео

Печатать
Просмотров: 66
FOREVER tuning - Bb F Bb Eb F Bb
Tabbed by JDD36

X - muted string		(note). - immediately mute note         ~ - vibrato
/ - slide up            (note)  - palm mute
b - bend,   r - release   .                  (note)* - harmonic
h - hammer on             p     - pull off

Main Riff
|----------------------------------------------------------|
|----------------------------------------------------------|
|----------------------------------------------------------|
|----------------------------------------------------------|
|-------------------------3b4------------------------------|
|-0-0-0-0.--000-0-0.--0-1------0-0-0-0.--000-0-0.--0-3-1~--|
            ..                           ..

Verse 1 
(Guitar 1)
|-----------------------------------------------------------------------------|
|-----------------------------------------------------------------------------|
|-----------------------------------------------------------------------------|
|-----------------------------------------------------------------------------|
|-0-13-0-13-0-13-0-13-0-13-0-13-0-13-0-13-0-12-0-12-0-12-0-12-0-5-0-5-0-7-0-7-|
|-----------------------------------------------------------------------------|

|-----------------------------------------------------------------------------|
|-----------------------------------------------------------------------------|
|-----------------------------------------------------------------------------|
|-----------------------------------------------------------------------------|
|-0-13-0-13-0-13-0-13-0-15-0-13-0-17-0-13-0-12-0-12-0-12-0-12-0-8-0-8-0-7-0-7-|
|-----------------------------------------------------------------------------|

|-----------------------------|
|-----------------------------|
|-----------------------------|
|-----------------------------|
|-----------------------------|
|-0-0-0-0.--000-0-0.--0-3-1~--|
            ..

(Guitar 2)
|-------------------------------------------------------------------------------------------------|
|-------------------------------------------------------------------------------------------------|
|-10-10-10-10-10-10-10-10-10-10-10-10-12-12-12-12-9--9--9--9--9--9--9--9--7--7--7--7--5--5--5--5--|
|-------------------------------------------------------------------------------------------------|
|-------------------------------------------------------------------------------------------------|
|-------------------------------------------------------------------------------------------------|
(palm mute)

|-------------------------------------------------------------------------------------------------|
|-------------------------------------------------------------------------------------------------|
|-10-10-10-10-10-10-10-10-10-10-10-10-12-12-12-12-9--9--9--9--9--9--9--9-10-10-10-10-12-12-12-12--|
|-------------------------------------------------------------------------------------------------|
|-------------------------------------------------------------------------------------------------|
|-------------------------------------------------------------------------------------------------|
(palm mute)

|----13----13----13----13----13----13----12----12----13----13----13----13----13----13----12----12-|
|-17----17----17----17----17----17----15----15----17----17----17----17----17----17----15----15----|
|-------------------------------------------------------------------------------------------------|
|-------------------------------------------------------------------------------------------------|
|-------------------------------------------------------------------------------------------------|
|-------------------------------------------------------------------------------------------------|
|-------------------------------------------------------------------------------------------------|

Pre Chorus
|----------------------------------------|
|----------------------------------------|
|----------------------------------------|
|----------------------------------------|
|----------------------------------------|
|-0-0-0-2-2-2-3.--------0-0-0-2-2-2-3.---|
  . . . . . . .         . . . . . . .

Chorus 
(Guitar 1)
|----------------------------------------------------------------------|
|----------------------------------------------------------------------|
|----------------------------------------------------------------------|
|-0-0-0-0-0-0-0-0-0-0-0-0-10-10-10-10-8-8-8-8-8-8-8-8------------------|
|-0-0-0-0-0-0-0-0-0-0-0-0-10-10-10-10-8-8-8-8-8-8-8-8-444-4-4-333-3-3--|
|-0-0-0-0-0-0-0-0-0-0-0-0-10-10-10-10-8-8-8-8-8-8-8-8-444-4-4-333-3-3--|
                                                      ... . . ... . .

|----------------------------------------------------------------------|
|----------------------------------------------------------------------|
|----------------------------------------------------------------------|
|-0-0-0-0-0-0-0-0-0-0-0-0-10-10-10-10-8-8-8-8-8-8-8-8------------------|
|-0-0-0-0-0-0-0-0-0-0-0-0-10-10-10-10-8-8-8-8-8-8-8-8-4444444433333333-|
|-0-0-0-0-0-0-0-0-0-0-0-0-10-10-10-10-8-8-8-8-8-8-8-8-4444444433333333-|
                                                      ................

|----------------------------------------------------------------------|
|----------------------------------------------------------------------|
|----------------------------------------------------------------------|
|-0-0-0-0-2-2-2-2-3-3-3-3-10-10-10-10-8-8-8-8-8-8-8-8------------------|
|-0-0-0-0-2-2-2-2-3-3-3-3-10-10-10-10-8-8-8-8-8-8-8-8-444-4-4-333-3-3--|
|-0-0-0-0-2-2-2-2-3-3-3-3-10-10-10-10-8-8-8-8-8-8-8-8-444-4-4-333-3-3--|
                                                      ... . . ... . .

|----------------------------------------------------------------------|
|----------------------------------------------------------------------|
|----------------------------------------------------------------------|
|-0-0-0-0-2-2-2-2-3-3-3-3-10-10-10-10-8-8-8-8-8-8-8-8------------------|
|-0-0-0-0-2-2-2-2-3-3-3-3-10-10-10-10-8-8-8-8-8-8-8-8-4444444433333333-|
|-0-0-0-0-2-2-2-2-3-3-3-3-10-10-10-10-8-8-8-8-8-8-8-8-4444444433333333-|
                                                      ................

(Guitar 2)
|-------------------------------------------------------------|
|-------------------------------------------------------------|
|-7-7-7-7-5-5-7-7-9-9-9-9-12-12-12-12-10-10-10-10-10-10-10-10-| x2
|-x-x-x-x-x-x-x-x-x-x-x-x--x--x--x--x--x--x--x--x--x--x--x--x-|
|-5-5-5-5-3-3-5-5-7-7-7-7-10-10-10-10--8--8--8--8--8--8--8--8-|
|-------------------------------------------------------------|

|-----------------------------------------------------------------|
|-----------------------------------------------------------------|
|-7-7-7-7-9-9-9-9-10-10-10-10-12-12-12-12-10-10-10-10-10-10-10-10-| x2
|-x-x-x-x-x-x-x-x--x--x--x--x--x--x--x--x--x--x--x--x--x--x--x--x-|
|-5-5-5-5-7-7-7-7--8--8--8--8-10-10-10-10-10-10-10-10-10-10-10-10-|
|-----------------------------------------------------------------|

(Both Guitars)
|-------------------------------------|
|-------------------------------------|
|-------------------------------------|
|-------------------------1-0---1-0---|
|-------------------------1-0---1-0---|
|-0---3b6r3---0---3b6r3---1-0---1-0---|

(Guitar 1)
|----------------------------------------------|
|----------------------------------------------|
|-10-10-10-10-10-10-10-10-10-10-10-10-9-9-9-9--|
|----------------------------------------------|
|----------------------------------------------|
|----------------------------------------------|

(Guitar 2)
|----------------------------------------------|
|----------------------------------------------|
|----------------------------------------------|
|-------------------------------------5*4*3*5*-|
|--------------------------5*-5*-5*-5*---------|
|----------------------------------------------|

Verse 2 (Guitar 2)
|-------------------------------------------------------------------------------------------------|
|-------------------------------------------------------------------------------------------------|
|-10-10-10-10-10-10-10-10-10-10-10-10-12-12-12-12-9--9--9--9--9--9--9--9--7--7--7--7--5--5--5--5--|
|-------------------------------------------------------------------------------------------------|
|-------------------------------------------------------------------------------------------------|
|-------------------------------------------------------------------------------------------------|
(palm mute)

|-------------------------------------------------------------------------------------------------|
|-------------------------------------------------------------------------------------------------|
|-10-10-10-10-10-10-10-10-10-10-10-10-12-12-12-12-14-14-14-14-14-14-14-14-17-17-17-17-17-17-17-17-|
|-------------------------------------------------------------------------------------------------|
|-------------------------------------------------------------------------------------------------|
|-------------------------------------------------------------------------------------------------|
(palm mute)

|----13----13----13----13----13----13----12----12----13----13----13----13----13----13----12----12-|
|-17----17----17----17----17----17----15----15----17----17----17----17----17----17----15----15----|
|-------------------------------------------------------------------------------------------------|
|-------------------------------------------------------------------------------------------------|
|-------------------------------------------------------------------------------------------------|
|-------------------------------------------------------------------------------------------------|
|-------------------------------------------------------------------------------------------------|

Pre Solo
|-----------------------------------------------------------------|
|-----------------------------------------------------------------|
|-----------------------------------------------------------------|
|-----------------------------------------------------------------|
|-----------------------------------------------------------------|
|-000-0-0-0-0-0-0-0-0-0-0-0-0-0-0-000-0-0-000-0-0-000-000-000-000-|
(Palm muted)

Solo
(Guitar 1) 
|-15-12----12----------12----12-----------------|
|-------15----15--------------------------------|
|----------------14-14----14----14-13-12~\------|
|-----------------------------------------------|
|-----------------------------------------------|
|-----------------------------------------------|

|-------------------------------------------------------|
|-----------12----------12/15\12------------------------|
|-/12-12-13----13-12-13----------13-12\10-12p10---------|
|-----------------------------------------------12p10~--|
|-------------------------------------------------------|
|-------------------------------------------------------|

|--------------------------------------------------------|
|--------------------------------------------------------|
|----------------------10--------------------------------|
|-12b13.-12~--10h11h12----12-11-10/12--12h13p12-12h13p12-|
|--------------------------------------------------------|
|--------------------------------------------------------|

|-------------------------------------19h20p19-19h20p19-19\--|
|-------------------17h18p17-17h18p17------------------------|
|-14h15p14-14h15p14------------------------------------------|
|------------------------------------------------------------|
|------------------------------------------------------------|
|------------------------------------------------------------|

(Guitar 2)
|----------------------------------------------------------------------------------------|
|----------------------------------------------------------------------------------------|
|----------------------------------------------------------------------------------------|
|-1-0---1-0.--------------0---0.----------------1-0---1-0.-------------0--1-0--1-0--1-0--|
|-1-0---1-0.--------------0---0.----------------1-0---1-0.-------------0--1-0--1-0--1-0--|
|-1-0---1-0.--------------0---0.----------------1-0---1-0.-------------0--1-0--1-0--1-0--|

Post Solo (All palm muted)
(Guitar 1)
|---------------------------------------------------------------------|
|---------------------------------------------------------------------|
|---------------------------------------------------------------------|
|---------------------------------------------------------------------|
|---------------------------------------------------------------------|
|-0-0-0-0-2-2-2-2-3-3-3-3-10-10-10-10-8-8-8-8-8-8-8-8-444-4-4-333-3-3-|

|-------------------------------------------------------|
|-------------------------------------------------------|
|-------------------------------------------------------|
|-------------------------------------------------------|
|-------------------------------------------------------|
|-0-0-0-0-2-2-2-2-3-3-3-3-10-10-10-10-8-8-8-8-8-8-8-8.--|

(Guitar 2)
|-----------------------------------------------------------------|
|-----------------------------------------------------------------|
|-----------------------------------------------------------------|
|-0-0-0-0-2-2-2-2-3-3-3-3-5-5-5-5-0-0-0-0-0-0-2-2-----------------|
|-------------------------------------------------444-4-4-333-3-3-|
|-----------------------------------------------------------------|

|---------------------------------------------------|
|---------------------------------------------------|
|---------------------------------------------------|
|-0-0-0-0-2-2-2-2-3-3-3-3-5-5-5-5-7-7-7-7-7-7-7-7.--|
|---------------------------------------------------|
|---------------------------------------------------|

Ending
|----------------------------------------------------------|
|----------------------------------------------------------|
|----------------------------------------------------------|
|----------------------------------------------------------|
|-------------------------3b4------------------------------|
|-0-0-0-0.--000-0-0.--0-1------0-0-0-0.--0-0.--------------|
            ..                           .

|----------------------------------------------------------|
|----------------------------------------------------------|
|----------------------------------------------------------|
|----------------------------------------------------------|
|-------------------------3b4------------------------------|
|-0-0-0-0.--000-0-0.--0-1------0-0-0-0.--000-0-0.--0-3-1---|
            ..                           ..

|--------------------------------------------------------------|
|--------------------------------------------------------------|
|------------------------------------------8-7---15-14---20-19-|
|-1-0----1-0----1-0----1-0----1-0----1-0---x-x----x--x----x--x-|
|-1-0----1-0----1-0----1-0----1-0----1-0---6-5---13-12---18-17-|
|-1-0----1-0----1-0----1-0----1-0----1-0-----------------------|
Добавлено: 12.08.2013
Другие материалы по этой песне:
  • Аккорды и текст

Страница создана 12.08.2013
http://primanota.ru/sevendust/forever-chords.htm
Привет, Гость.
Предлагаем пройти революционный курс по гитаре.
Подарок от PrimaNota.Ru, забирай!