PrimaNota.ru - самый крупный в мире бесплатный архив песенных текстов, аккордов, табулатур и нот


Sevendust - Feel so - текст песни, таба, бас-таба, видео

Регистрация Запомнить меня
Войти через:  Facebook Google Twitter Vk Yandex Mail.ru

Sevendust - Feel so - текст песни, таба, бас-таба, видео

Печатать
Просмотров: 84
Sevendust: Feel So

Transcribed by: Andrew Zara (disturbedfreak0520@yahoo.com)

Date last modified: June 11, 2007

PLEASE DO NOT COPY THIS TAB TO ANOTHER SITE
WITHOUT AUTHORS' PERMISSION. THANK YOU.

Tuning: Drop B (B,F#,B,E,G#,C#)

Clint Lowery

S S S S S S S S S S S S S S T   T S  
C#||--------------------------------------|
G#||--1-1-3-3-3-1-1-1-3-3-3-1-4-1-3br-L-L-|
E ||--------------------------------------|
B ||--------------------------------------|
F#||--3-3-5-5-5-3-3-3-5-5-5-3-6-3-5br-L-L-|
B ||--------------------------------------|


  S S S S S S S S S S S S S S T   T S    E  E  S S E  E  S S E  E  H         
--------------------------------------|-------------------------------------|
--3-1-3-1-3-1-3-4-4-4-4-1-3-1-3br-L-L-|----------x-------x-x----------------|
--------------------------------------|----------x-------x-x----------------|
--------------------------------------|--0--0----x-0--0--x-x-0--0-----------|
--5-3-5-3-5-3-5-6-6-6-6-3-5-3-5br-L-L-|--0--0----x-0--0--x-x-0--0-----------|
--------------------------------------|--0--0----x-0--0--x-x-0--0-----------|


  E  E  S S E  E  S S E  E  H           E  E  S S E  E  S S E  E  H         
-------------------------------------|-------------------------------------|
----------x-------x-x----------------|----------x-------x-x----------------|
----------x-------x-x----------------|----------x-------x-x----------------|
--0--0----x-0--0--x-x-0--0-----------|--0--0----x-0--0--x-x-0--0-----------|
--0--0----x-0--0--x-x-0--0-----------|--0--0----x-0--0--x-x-0--0-----------|
--0--0----x-0--0--x-x-0--0-----------|--0--0----x-0--0--x-x-0--0-----------|


  E  E  S S E  E  S S E  E  H         
-------------------------------------|
----------x-------x-x----------------|
----------x-------x-x----------------|
--0--0----x-0--0--x-x-0--0-----------|
--0--0----x-0--0--x-x-0--0-----------|
--0--0----x-0--0--x-x-0--0-----------|


  S S S S Q    Q    S S S S S S S S S S S S  
--------------------------------------------|
--------------------------------------------|
--------------------------------------------|
--3-3-2-2-----------3-3-0-0-----------------|
--3-3-2-2-----------3-3-0-0---0-2-0-2-3-2-0-|
--3-3-2-2-----------3-3-0-0---0-2-0-2-3-2-0-|


  S S S S Q    Q    S S S S S S S S S S S S  
--------------------------------------------|
--------------------------------------------|
--------------------------------------------|
--3-3-2-2-----------3-3-0-0-----------------|
--3-3-2-2-----------3-3-0-0---0-2-0-2-3-2-0-|
--3-3-2-2-----------3-3-0-0---0-2-0-2-3-2-0-|


  S S S S Q    Q    S S S S S S S S S S S S  
--------------------------------------------|
--------------------------------------------|
--------------------------------------------|
--3-3-2-2-----------3-3-0-0-----------------|
--3-3-2-2-----------3-3-0-0---0-2-0-2-3-2-0-|
--3-3-2-2-----------3-3-0-0---0-2-0-2-3-2-0-|


  S S S S Q    Q    S S S S S S S S S S S S    S E  S E  S S S E  S S E.   
--------------------------------------------|-----------------------------|
--------------------------------------------|-----------------------------|
--------------------------------------------|-----------------------------|
--3-3-2-2-----------3-3-0-0-----------------|----6--6------6-L-6--6-------|
--3-3-2-2-----------3-3-0-0---0-2-0-2-3-2-0-|----6--6------6-L-6--6-------|
--3-3-2-2-----------3-3-0-0---0-2-0-2-3-2-0-|--0-6--6-0--0-6-L-6--6-0-0---|


  S E  S E  S S S E  S S E.      S T T T T S E  S S T T T T T T T T S S S S  
------------------------------|---------------------------------------------|
------------------------------|---------------------------------------------|
------------------------------|---------------------------------------------|
----6--6------6-L-6-----------|--------------4--4-------------------4-4-4-4-|
----6--6------6-L-6----5-6~---|--5-6-6-6-6-6-0--0-6-L-6-6-6-6-6-6-6-0-0-0-0-|
--0-6--6-0--0-6-L-6--0--------|--------------0--0-------------------0-0-0-0-|


  S T T T T S E  S S T T T T T T T T   T  T  T  T  T  T  T  T   
---------------------------------------------------------------|
---------------------------------------------------------------|
---------------------------------------------------------------|
--------------4--4---------------------------------------------|
--5-6-6-6-6-6-0--0-6-L-6-6-6-6-6-6-6S-10-10-10-10-10-10-10-10S-|
--------------0--0---------------------------------------------|


  S S S S Q    Q    S S S S H         
-------------------------------------|
-------------------------------------|
--7-7-7-7-----------7-7-7-7----------|
--0-0-0-0-----------0-0-0-0----------|
--5-5-5-5-----------5-5-5-5----------|
--0-0-0-0-----------0-0-0-0----------|


   S  S  S  S Q    Q     S  S  S  S Q.      E   
-----------------------------------------------|
-----------------------------------------------|
--10-10-10-10-----------10-10-10-10------------|
---0--0--0--0------------0--0--0--0------------|
---8--8--8--8------------8--8--8--8-8b------L--|
---0--0--0--0------------0--0--0--0------------|


  S S S S Q    Q    S S S S S S S S S S S S  
--------------------------------------------|
--------------------------------------------|
--------------------------------------------|
--3-3-2-2-----------3-3-0-0-----------------|
--3-3-2-2-----------3-3-0-0---0-2-0-2-3-2-0-|
--3-3-2-2-----------3-3-0-0---0-2-0-2-3-2-0-|


  S S S S Q    Q    S S S S S S S S S S S S  
--------------------------------------------|
--------------------------------------------|
--------------------------------------------|
--3-3-2-2-----------3-3-0-0-----------------|
--3-3-2-2-----------3-3-0-0---0-2-0-2-3-2-0-|
--3-3-2-2-----------3-3-0-0---0-2-0-2-3-2-0-|


  S S S S Q    Q    S S S S S S S S S S S S  
--------------------------------------------|
--------------------------------------------|
--------------------------------------------|
--3-3-2-2-----------3-3-0-0-----------------|
--3-3-2-2-----------3-3-0-0---0-2-0-2-3-2-0-|
--3-3-2-2-----------3-3-0-0---0-2-0-2-3-2-0-|


  S S S S Q    Q    S S S S Q    Q     
--------------------------------------|
--------------------------------------|
--------------------------------------|
--3-3-2-2-----------3-3-0-0-----------|
--3-3-2-2-----------3-3-0-0-----------|
--3-3-2-2-----------3-3-0-0-----------|


   S  S  S  S S  S  S  S  S  S  E    S  S  S  S S  S  S  S S  S  E    
---------------------------------------------------------------------|
---------------------------------------------------------------------|
--11-11-11-11---15-15-15--L-15-15S--11-11-11-11---15-15-15-L-15-15S--|
---0--0--0--0----0--0--0-----0--0----0--0--0--0----0--0--0----0--0---|
---9--9--9--9---13-13-13--L-13-13S---9--9--9--9---13-13-13-L-13-13S--|
---------------------------------------------------------------------|


   S  S  S  S S  S  S  S S  S  E    S  S  S  S S  S  S  S  S  S  S  S  
----------------------------------------------------------------------|
----------------------------------------------------------------------|
--12-12-12-12---12-12-12-L-12-12S--10-10-10-10---10-10-10-10-10-10-10-|
---0--0--0--0----0--0--0----0--0----0--0--0--0----0--0--0--0--0--0--0-|
--10-10-10-10---10-10-10-L-10-10S---8--8--8--8----8--8--8--8--8--8--8-|
----------------------------------------------------------------------|


   S  S  S  S S  S  S  S  S  S  E    S  S  S  S S  S  S  S S  S  E    
---------------------------------------------------------------------|
---------------------------------------------------------------------|
--11-11-11-11---15-15-15--L-15-15S--11-11-11-11---15-15-15-L-15-15S--|
---0--0--0--0----0--0--0-----0--0----0--0--0--0----0--0--0----0--0---|
---9--9--9--9---13-13-13--L-13-13S---9--9--9--9---13-13-13-L-13-13S--|
---------------------------------------------------------------------|


   S  S  S  S S  S  S  S S  S  E    S  S  S  S S  S  S  S  S  S  S  S  
----------------------------------------------------------------------|
----------------------------------------------------------------------|
--12-12-12-12---12-12-12-L-12-12S--10-10-10-10---10-10-10-10-10-10-10-|
---0--0--0--0----0--0--0----0--0----0--0--0--0----0--0--0--0--0--0--0-|
--10-10-10-10---10-10-10-L-10-10S---8--8--8--8----8--8--8--8--8--8--8-|
----------------------------------------------------------------------|


  E  E  S S E  E  S S E  E  S  S S  S S  S S  S  
------------------------------------------------|
----------x-------x-x---------------------------|
----------x-------x-x-------7S-8-8S-5-5S-7-7S-8-|
--0--0----x-0--0--x-x-0--0----------------------|
--0--0----x-0--0--x-x-0--0----------------------|
--0--0----x-0--0--x-x-0--0----------------------|


  E  E  S S E  E  S S E  E  S  S S  S S  S E   
----------------------------------------------|
----------x-------x-x-------------------------|
----------x-------x-x-------------------------|
--0--0----x-0--0--x-x-0--0--4S-5-5S-4-4S-5----|
--0--0----x-0--0--x-x-0--0-----------------3--|
--0--0----x-0--0--x-x-0--0--------------------|


  E  E  S S E  E  S S E  E  S  S S  S S  S S  S  
------------------------------------------------|
----------x-------x-x---------------------------|
----------x-------x-x-------7S-8-8S-5-5S-7-7S-8-|
--0--0----x-0--0--x-x-0--0----------------------|
--0--0----x-0--0--x-x-0--0----------------------|
--0--0----x-0--0--x-x-0--0----------------------|


  E  E  S S E  E  S S E  E  H        Q     
------------------------------------------|
----------x-------x-x---------------------|
----------x-------x-x---------------------|
--0--0----x-0--0--x-x-0--0----------------|
--0--0----x-0--0--x-x-0--0----------------|
--0--0----x-0--0--x-x-0--0----------------|


  S S S S Q    Q    S S S S S S S S S S S S  
--------------------------------------------|
--------------------------------------------|
--------------------------------------------|
--3-3-2-2-----------3-3-0-0-----------------|
--3-3-2-2-----------3-3-0-0---0-2-0-2-3-2-0-|
--3-3-2-2-----------3-3-0-0---0-2-0-2-3-2-0-|


  S S S S Q    Q    S S S S S S S S S S S S  
--------------------------------------------|
--------------------------------------------|
--------------------------------------------|
--3-3-2-2-----------3-3-0-0-----------------|
--3-3-2-2-----------3-3-0-0---0-2-0-2-3-2-0-|
--3-3-2-2-----------3-3-0-0---0-2-0-2-3-2-0-|


  S S S S Q    Q    S S S S S S S S S S S S  
--------------------------------------------|
--------------------------------------------|
--------------------------------------------|
--3-3-2-2-----------3-3-0-0-----------------|
--3-3-2-2-----------3-3-0-0---0-2-0-2-3-2-0-|
--3-3-2-2-----------3-3-0-0---0-2-0-2-3-2-0-|


  S S S S Q    Q    S S S S S S S S S S S S  
--------------------------------------------|
--------------------------------------------|
--------------------------------------------|
--3-3-2-2-----------3-3-0-0-----------------|
--3-3-2-2-----------3-3-0-0---0-2-0-2-3-2-0-|
--3-3-2-2-----------3-3-0-0---0-2-0-2-3-2-0-|


   S  S  S  S S  S  S  S  S  S  E    S  S  S  S S  S  S  S S  S  E    
---------------------------------------------------------------------|
---------------------------------------------------------------------|
--11-11-11-11---15-15-15--L-15-15S--11-11-11-11---15-15-15-L-15-15S--|
---0--0--0--0----0--0--0-----0--0----0--0--0--0----0--0--0----0--0---|
---9--9--9--9---13-13-13--L-13-13S---9--9--9--9---13-13-13-L-13-13S--|
---------------------------------------------------------------------|


   S  S  S  S S  S  S  S S  S  E    S  S  S  S S  S  S  S  S  S  S  S  
----------------------------------------------------------------------|
----------------------------------------------------------------------|
--12-12-12-12---12-12-12-L-12-12S--10-10-10-10---10-10-10-10-10-10-10-|
---0--0--0--0----0--0--0----0--0----0--0--0--0----0--0--0--0--0--0--0-|
--10-10-10-10---10-10-10-L-10-10S---8--8--8--8----8--8--8--8--8--8--8-|
----------------------------------------------------------------------|


   S  S  S  S S  S  S  S  S  S  E    S  S  S  S S  S  S  S S  S  E    
---------------------------------------------------------------------|
---------------------------------------------------------------------|
--11-11-11-11---15-15-15--L-15-15S--11-11-11-11---15-15-15-L-15-15S--|
---0--0--0--0----0--0--0-----0--0----0--0--0--0----0--0--0----0--0---|
---9--9--9--9---13-13-13--L-13-13S---9--9--9--9---13-13-13-L-13-13S--|
---------------------------------------------------------------------|


   S  S  S  S S  S  S  S S  S  E    S  S  S  S S  S  S  S  S  S  S  S  
----------------------------------------------------------------------|
----------------------------------------------------------------------|
--12-12-12-12---12-12-12-L-12-12S--10-10-10-10---10-10-10-10-10-10-10-|
---0--0--0--0----0--0--0----0--0----0--0--0--0----0--0--0--0--0--0--0-|
--10-10-10-10---10-10-10-L-10-10S---8--8--8--8----8--8--8--8--8--8--8-|
----------------------------------------------------------------------|


  E  E  S S E  E  S S E  E  S  S S  S S  S S  S  
------------------------------------------------|
----------x-------x-x---------------------------|
----------x-------x-x-------7S-8-8S-5-5S-7-7S-8-|
--0--0----x-0--0--x-x-0--0----------------------|
--0--0----x-0--0--x-x-0--0----------------------|
--0--0----x-0--0--x-x-0--0----------------------|


  E  E  S S E  E  S S E  E  S  S S  S S  S E   
----------------------------------------------|
----------x-------x-x-------------------------|
----------x-------x-x-------------------------|
--0--0----x-0--0--x-x-0--0--4S-5-5S-4-4S-5----|
--0--0----x-0--0--x-x-0--0-----------------3--|
--0--0----x-0--0--x-x-0--0--------------------|


  E  E  S S E  E  S S E  E  S  S S  S S  S S  S  
------------------------------------------------|
----------x-------x-x---------------------------|
----------x-------x-x-------7S-8-8S-5-5S-7-7S-8-|
--0--0----x-0--0--x-x-0--0----------------------|
--0--0----x-0--0--x-x-0--0----------------------|
--0--0----x-0--0--x-x-0--0----------------------|


  E  E  S S E  E  S S E  E  H         
-------------------------------------|
----------x-------x-x----------------|
----------x-------x-x----------------|
--0--0----x-0--0--x-x-0--0-----------|
--0--0----x-0--0--x-x-0--0-----------|
--0--0----x-0--0--x-x-0--0-----------|


  E  E  S S E  E  S S E  E  S  S S  S S  S S  S  
------------------------------------------------|
----------x-------x-x---------------------------|
----------x-------x-x-------7S-8-8S-5-5S-7-7S-8-|
--0--0----x-0--0--x-x-0--0----------------------|
--0--0----x-0--0--x-x-0--0----------------------|
--0--0----x-0--0--x-x-0--0----------------------|


  E  E  S S E  E  S S E  E  S  S S  S S  S E   
----------------------------------------------|
----------x-------x-x-------------------------|
----------x-------x-x-------------------------|
--0--0----x-0--0--x-x-0--0--4S-5-5S-4-4S-5----|
--0--0----x-0--0--x-x-0--0-----------------3--|
--0--0----x-0--0--x-x-0--0--------------------|


  E  E  S S E  E  S S E  E  S  S S  S S  S S  S  
------------------------------------------------|
----------x-------x-x---------------------------|
----------x-------x-x-------7S-8-8S-5-5S-7-7S-8-|
--0--0----x-0--0--x-x-0--0----------------------|
--0--0----x-0--0--x-x-0--0----------------------|
--0--0----x-0--0--x-x-0--0----------------------|


  E  E  S S E  E  S S E  E  S  S S  S S  S E   
----------------------------------------------|
----------x-------x-x-------------------------|
----------x-------x-x-------------------------|
--0--0----x-0--0--x-x-0--0--4S-5-5S-4-4S-5----|
--0--0----x-0--0--x-x-0--0-----------------3--|
--0--0----x-0--0--x-x-0--0--------------------|


  S  S   S  S  S   S  S  S   S  S  S   S S S S S  
-------------------------------------------------|
-------------------------------------------------|
-------------------------------------------------|
---------------------------------------------7-6-|
----10h-12-12-10h-12-12-10h-12-12-10h-12-----5-6-|
--0-10h-12-12-10h-12-12-10h-12-12-10h-12-0-0---6-|


  S  S  S   S  S  S   S  S  S   S S S S S S S  
----------------------------------------------|
----------------------------------------------|
----------------------------------------------|
--------------------------------------7-6-----|
----12-10h-12-12-10h-12-12-10h-12-----5-6-----|
--0-12-10h-12-12-10h-12-12-10h-12-0-0---6-0-0-|


   S  S   S  S  S   S  S  S   S  S  S   S S S S S  
--------------------------------------------------|
--------------------------------------------------|
--------------------------------------------------|
----------------------------------------------7-6-|
--12-10h-12-12-10h-12-12-10h-12-12-10h-12-----5-6-|
--12-10h-12-12-10h-12-12-10h-12-12-10h-12-0-0---6-|


  S  S  S   S  S  S   S  S  S   S S S S E.      H         
---------------------------------------------|-----------|
---------------------------------------------|-----------|
---------------------------------------------|-----------|
--------------------------------------7-6S---|-----------|
----12-10h-12-12-10h-12-12-10h-12-----5-6S---|-----------|
--0-12-10h-12-12-10h-12-12-10h-12-0-0---6S---|-----------|


  S E  S E  S S S E  S S E.     S E  S E  S S S E  S S E.    
-----------------------------|------------------------------|
-----------------------------|------------------------------|
-----------------------------|------------------------------|
----6--6------6-L-6--6-------|----6--6------6-L-6-----------|
----6--6------6-L-6--6-------|----6--6------6-L-6----5-6~---|
--0-6--6-0--0-6-L-6--6-0-0---|--0-6--6-0--0-6-L-6--0--------|


  S T T T T S E  S S T T T T T T T T S S S S  
---------------------------------------------|
---------------------------------------------|
---------------------------------------------|
--------------4--4-------------------4-4-4-4-|
--5-6-6-6-6-6-0--0-6-L-6-6-6-6-6-6-6-0-0-0-0-|
--------------0--0-------------------0-0-0-0-|


  S T T T T S E  S S T T T T T T T T   T  T  T  T  T  T  T  T   
---------------------------------------------------------------|
---------------------------------------------------------------|
---------------------------------------------------------------|
--------------4--4---------------------------------------------|
--5-6-6-6-6-6-0--0-6-L-6-6-6-6-6-6-6S-10-10-10-10-10-10-10-10S-|
--------------0--0---------------------------------------------|


  E  E  S S E  E  S S E  E  S  S S  S S  S S  S  
------------------------------------------------|
----------x-------x-x---------------------------|
----------x-------x-x-------7S-8-8S-5-5S-7-7S-8-|
--0--0----x-0--0--x-x-0--0----------------------|
--0--0----x-0--0--x-x-0--0----------------------|
--0--0----x-0--0--x-x-0--0----------------------|


  E  E  S S E  E  S S E  E  S  S S  S S  S E   
----------------------------------------------|
----------x-------x-x-------------------------|
----------x-------x-x-------------------------|
--0--0----x-0--0--x-x-0--0--4S-5-5S-4-4S-5----|
--0--0----x-0--0--x-x-0--0-----------------3--|
--0--0----x-0--0--x-x-0--0--------------------|


  E  E  S S E  E  S S E  E  S  S S  S S  S S  S  
------------------------------------------------|
----------x-------x-x---------------------------|
----------x-------x-x-------7S-8-8S-5-5S-7-7S-8-|
--0--0----x-0--0--x-x-0--0----------------------|
--0--0----x-0--0--x-x-0--0----------------------|
--0--0----x-0--0--x-x-0--0----------------------|


  E  E  S S E  E  S S E  E  Q    Q     
--------------------------------------|
----------x-------x-x-----------------|
----------x-------x-x-----------------|
--0--0----x-0--0--x-x-0--0------------|
--0--0----x-0--0--x-x-0--0------------|
--0--0----x-0--0--x-x-0--0------------|


                                             |---3---|  
   S  S  S  S  S  S  S  S  S  S  S  S  S  S  S   S   S  
-------------------------------------------------------|
-------------------------------------------------------|
-------------------------------------------------------|
-----10----12-------10-------12-------13---------------|
-------------------------------------------------------|
--10----12----12-10----10-12----12-10----10-12h-13p-12-|


   S  S   S  S  S  S  S  S  S  S  S  S  S  S  E   
-------------------------------------------------|
-------------------------------------------------|
-------------------------------------------------|
--13--------12-------13-------13-------12--------|
---------------------------------------------10--|
-----10h-12----12-10----10-13----13-10----10-----|


  E  E  S S E  E  S S E  E  H           E  E  S S E  E  S S E  E  H         
-------------------------------------|-------------------------------------|
----------x-------x-x----------------|----------x-------x-x----------------|
----------x-------x-x----------------|----------x-------x-x----------------|
--0--0----x-0--0--x-x-0--0-----------|--0--0----x-0--0--x-x-0--0-----------|
--0--0----x-0--0--x-x-0--0-----------|--0--0----x-0--0--x-x-0--0-----------|
--0--0----x-0--0--x-x-0--0-----------|--0--0----x-0--0--x-x-0--0-----------|


  E  E  S S E  E  S S E  E  H           E  E  S S E  E  S S E  E  H          
-------------------------------------|-------------------------------------||
----------x-------x-x----------------|----------x-------x-x----------------||
----------x-------x-x----------------|----------x-------x-x----------------||
--0--0----x-0--0--x-x-0--0-----------|--0--0----x-0--0--x-x-0--0-----------||
--0--0----x-0--0--x-x-0--0-----------|--0--0----x-0--0--x-x-0--0-----------||
--0--0----x-0--0--x-x-0--0-----------|--0--0----x-0--0--x-x-0--0-----------||

**************************************
**************************************
**************************************

John Connolly

 W                   W                 
C#||-------------------|-------------------|
G#||-------------------|-------------------|
E ||-------------------|-------------------|
B ||-------------------|-------------------|
F#||-------------------|-------------------|
B ||-------------------|-------------------|


  E  E  S S E  E  S S E  E  H           E  E  S S E  E  S S E  E  H         
-------------------------------------|-------------------------------------|
----------x-------x-x----------------|----------x-------x-x----------------|
----------x-------x-x----------------|----------x-------x-x----------------|
--0--0----x-0--0--x-x-0--0-----------|--0--0----x-0--0--x-x-0--0-----------|
--0--0----x-0--0--x-x-0--0-----------|--0--0----x-0--0--x-x-0--0-----------|
--0--0----x-0--0--x-x-0--0-----------|--0--0----x-0--0--x-x-0--0-----------|


  E  E  S S E  E  S S E  E  H           E  E  S S E  E  S S E  E  H         
-------------------------------------|-------------------------------------|
----------x-------x-x----------------|----------x-------x-x----------------|
----------x-------x-x----------------|----------x-------x-x----------------|
--0--0----x-0--0--x-x-0--0-----------|--0--0----x-0--0--x-x-0--0-----------|
--0--0----x-0--0--x-x-0--0-----------|--0--0----x-0--0--x-x-0--0-----------|
--0--0----x-0--0--x-x-0--0-----------|--0--0----x-0--0--x-x-0--0-----------|


  S S S S Q    Q    S S S S S S S S S S S S  
--------------------------------------------|
--------------------------------------------|
--------------------------------------------|
--3-3-2-2-----------3-3-0-0-----------------|
--3-3-2-2-----------3-3-0-0---0-2-0-2-3-2-0-|
--3-3-2-2-----------3-3-0-0---0-2-0-2-3-2-0-|


  S S S S Q    Q    S S S S S S S S S S S S  
--------------------------------------------|
--------------------------------------------|
--------------------------------------------|
--3-3-2-2-----------3-3-0-0-----------------|
--3-3-2-2-----------3-3-0-0---0-2-0-2-3-2-0-|
--3-3-2-2-----------3-3-0-0---0-2-0-2-3-2-0-|


  S S S S Q    Q    S S S S S S S S S S S S  
--------------------------------------------|
--------------------------------------------|
--------------------------------------------|
--3-3-2-2-----------3-3-0-0-----------------|
--3-3-2-2-----------3-3-0-0---0-2-0-2-3-2-0-|
--3-3-2-2-----------3-3-0-0---0-2-0-2-3-2-0-|


  S S S S Q    Q    S S S S S S S S S S S S    S E  S E  S S S E  S S E.   
--------------------------------------------|-----------------------------|
--------------------------------------------|-----------------------------|
--------------------------------------------|-----------------------------|
--3-3-2-2-----------3-3-0-0-----------------|----6--6------6-L-6--6-------|
--3-3-2-2-----------3-3-0-0---0-2-0-2-3-2-0-|----6--6------6-L-6--6-------|
--3-3-2-2-----------3-3-0-0---0-2-0-2-3-2-0-|--0-6--6-0--0-6-L-6--6-0-0---|


  S E  S E  S S S E  S  S   E.      S E  S E  S S S E  S S E  S  
---------------------------------|------------------------------|
---------------------------------|------------------------------|
---------------------------------|------------------------------|
----6--6------6-L-6--------------|----6--6------6-L-6-----------|
----6--6------6-L-6--------------|----6--6------6-L-6-----------|
--0-6--6-0--0-6-L-6--0-16S-17S---|--0-6--6-0--0-6-L-6--0-0-0--0-|


  S E  S E  S S S E  S  Q        S S S S Q    Q    S S S S H         
------------------------------|-------------------------------------|
------------------------------|-------------------------------------|
------------------------------|--7-7-7-7-----------7-7-7-7----------|
----6--6------6-L-6-----------|--0-0-0-0-----------0-0-0-0----------|
----6--6------6-L-6-----------|--5-5-5-5-----------5-5-5-5----------|
--0-6--6-0--0-6-L-6--0-13S----|--0-0-0-0-----------0-0-0-0----------|


   S  S  S  S Q    Q     S  S  S  S Q.      E    
------------------------------------------------|
------------------------------------------------|
--10-10-10-10-----------10-10-10-10-------------|
---0--0--0--0------------0--0--0--0-------------|
---8--8--8--8------------8--8--8--8-8b------8S--|
---0--0--0--0------------0--0--0--0-------------|


  S S S S Q    Q    S S S S S S S S S S S S  
--------------------------------------------|
--------------------------------------------|
--------------------------------------------|
--3-3-2-2-----------3-3-0-0-----------------|
--3-3-2-2-----------3-3-0-0---0-2-0-2-3-2-0-|
--3-3-2-2-----------3-3-0-0---0-2-0-2-3-2-0-|


  S S S S Q    Q    S S S S S S S S S S S S  
--------------------------------------------|
--------------------------------------------|
--------------------------------------------|
--3-3-2-2-----------3-3-0-0-----------------|
--3-3-2-2-----------3-3-0-0---0-2-0-2-3-2-0-|
--3-3-2-2-----------3-3-0-0---0-2-0-2-3-2-0-|


  S S S S Q    Q    S S S S S S S S S S S S  
--------------------------------------------|
--------------------------------------------|
--------------------------------------------|
--3-3-2-2-----------3-3-0-0-----------------|
--3-3-2-2-----------3-3-0-0---0-2-0-2-3-2-0-|
--3-3-2-2-----------3-3-0-0---0-2-0-2-3-2-0-|


  S S S S Q    Q    S S S S Q    Q     
--------------------------------------|
--------------------------------------|
--------------------------------------|
--3-3-2-2-----------3-3-0-0-----------|
--3-3-2-2-----------3-3-0-0-----------|
--3-3-2-2-----------3-3-0-0-----------|


  S S S S Q    E  S S S S S S Q    E  S S  
------------------------------------------|
------------------------------------------|
--7-7-7-7-------------7-7-7-7-------------|
--7-7-7-7-------------7-7-7-7-------------|
--5-5-5-5-------------5-5-5-5-------------|
--0-0-0-0---------0-0-0-0-0-0---------0-0-|


  S S S S Q    E  S S  S  S  S  S  H         
--------------------------------------------|
--------------------------------------------|
--5-5-5-5-------------10-10-10-10-10--------|
--3-3-3-3--------------8--8--8--8-10--------|
--3-3-3-3--------------8--8--8--8--8--------|
--3-3-3-3---------0-0--8--8--8--8--8--------|


  S S S S S E  S S E  S S S S S S E  S S E  S  
----------------------------------------------|
----------------------------------------------|
--7-7-7-7---------------7-7-7-7---------------|
--7-7-7-7---------------7-7-7-7---------------|
--5-5-5-5---5--5-L-5--5-5-5-5-5---5--5-L-5--5-|
--0-0-0-0---0--0-L-0--0-0-0-0-0---0--0-L-0--0-|


  S S S S S E  S S E  S  S  S  S  S  H         
----------------------------------------------|
----------------------------------------------|
--5-5-5-5---------------10-10-10-10-10--------|
--3-3-3-3----------------8--8--8--8-10--------|
--3-3-3-3---3--3-L-3--3--8--8--8--8--8--------|
--3-3-3-3---3--3-L-3--3--8--8--8--8--8--------|


  E  E  S S E  E  S S E  E  S  S S  S S  S S  S  
------------------------------------------------|
----------x-------x-x---------------------------|
----------x-------x-x---------------------------|
--0--0----x-0--0--x-x-0--0----------------------|
--0--0----x-0--0--x-x-0--0--5S-6-6S-3-3S-5-5S-6-|
--0--0----x-0--0--x-x-0--0----------------------|


  E  E  S S E  E  S S E  E  S  S S  S S  S E   
----------------------------------------------|
----------x-------x-x-------------------------|
----------x-------x-x-------7S-8-8S-7-7S-8-5--|
--0--0----x-0--0--x-x-0--0--------------------|
--0--0----x-0--0--x-x-0--0--5S-6-6S-5-5S-6-3--|
--0--0----x-0--0--x-x-0--0--------------------|


  E  E  S S E  E  S S E  E  S  S S  S S  S S  S  
------------------------------------------------|
----------x-------x-x---------------------------|
----------x-------x-x---------------------------|
--0--0----x-0--0--x-x-0--0----------------------|
--0--0----x-0--0--x-x-0--0--5S-6-6S-3-3S-5-5S-6-|
--0--0----x-0--0--x-x-0--0----------------------|


  E  E  S S E  E  S S E  E  H        Q     
------------------------------------------|
----------x-------x-x---------------------|
----------x-------x-x---------------------|
--0--0----x-0--0--x-x-0--0----------------|
--0--0----x-0--0--x-x-0--0----------------|
--0--0----x-0--0--x-x-0--0----------------|


  S S S S Q    Q    S S S S S S S S S S S S  
--------------------------------------------|
--------------------------------------------|
--------------------------------------------|
--3-3-2-2-----------3-3-0-0-----------------|
--3-3-2-2-----------3-3-0-0---0-2-0-2-3-2-0-|
--3-3-2-2-----------3-3-0-0---0-2-0-2-3-2-0-|


  S S S S Q    Q    S S S S S S S S S S S S  
--------------------------------------------|
--------------------------------------------|
--------------------------------------------|
--3-3-2-2-----------3-3-0-0-----------------|
--3-3-2-2-----------3-3-0-0---0-2-0-2-3-2-0-|
--3-3-2-2-----------3-3-0-0---0-2-0-2-3-2-0-|


  S S S S Q    Q    S S S S S S S S S S S S  
--------------------------------------------|
--------------------------------------------|
--------------------------------------------|
--3-3-2-2-----------3-3-0-0-----------------|
--3-3-2-2-----------3-3-0-0---0-2-0-2-3-2-0-|
--3-3-2-2-----------3-3-0-0---0-2-0-2-3-2-0-|


  S S S S Q    Q    S S S S S S S S S S S S  
--------------------------------------------|
--------------------------------------------|
--------------------------------------------|
--3-3-2-2-----------3-3-0-0-----------------|
--3-3-2-2-----------3-3-0-0---0-2-0-2-3-2-0-|
--3-3-2-2-----------3-3-0-0---0-2-0-2-3-2-0-|


  S S S S Q    E  S S S S S S Q    E  S S  
------------------------------------------|
------------------------------------------|
--7-7-7-7-------------7-7-7-7-------------|
--7-7-7-7-------------7-7-7-7-------------|
--5-5-5-5-------------5-5-5-5-------------|
--0-0-0-0---------0-0-0-0-0-0---------0-0-|


  S S S S Q    E  S S  S  S  S  S  H         
--------------------------------------------|
--------------------------------------------|
--5-5-5-5-------------10-10-10-10-10--------|
--3-3-3-3--------------8--8--8--8-10--------|
--3-3-3-3--------------8--8--8--8--8--------|
--3-3-3-3---------0-0--8--8--8--8--8--------|


  S S S S S E  S S E  S S S S S S E  S S E  S  
----------------------------------------------|
----------------------------------------------|
--7-7-7-7---------------7-7-7-7---------------|
--7-7-7-7---------------7-7-7-7---------------|
--5-5-5-5---5--5-L-5--5-5-5-5-5---5--5-L-5--5-|
--0-0-0-0---0--0-L-0--0-0-0-0-0---0--0-L-0--0-|


  S S S S S E  S S E  S  S  S  S  S  H         
----------------------------------------------|
----------------------------------------------|
--5-5-5-5---------------10-10-10-10-10--------|
--3-3-3-3----------------8--8--8--8-10--------|
--3-3-3-3---3--3-L-3--3--8--8--8--8--8--------|
--3-3-3-3---3--3-L-3--3--8--8--8--8--8--------|


  E  E  S S E  E  S S E  E  S  S S  S S  S S  S  
------------------------------------------------|
----------x-------x-x---------------------------|
----------x-------x-x---------------------------|
--0--0----x-0--0--x-x-0--0----------------------|
--0--0----x-0--0--x-x-0--0--5S-6-6S-3-3S-5-5S-6-|
--0--0----x-0--0--x-x-0--0----------------------|


  E  E  S S E  E  S S E  E  S  S S  S S  S E   
----------------------------------------------|
----------x-------x-x-------------------------|
----------x-------x-x-------7S-8-8S-7-7S-8-5--|
--0--0----x-0--0--x-x-0--0--------------------|
--0--0----x-0--0--x-x-0--0--5S-6-6S-5-5S-6-3--|
--0--0----x-0--0--x-x-0--0--------------------|


  E  E  S S E  E  S S E  E  S  S S  S S  S S  S  
------------------------------------------------|
----------x-------x-x---------------------------|
----------x-------x-x---------------------------|
--0--0----x-0--0--x-x-0--0----------------------|
--0--0----x-0--0--x-x-0--0--5S-6-6S-3-3S-5-5S-6-|
--0--0----x-0--0--x-x-0--0----------------------|


  E  E  S S E  E  S S E  E  H         
-------------------------------------|
----------x-------x-x----------------|
----------x-------x-x----------------|
--0--0----x-0--0--x-x-0--0-----------|
--0--0----x-0--0--x-x-0--0-----------|
--0--0----x-0--0--x-x-0--0-----------|


  E  E  S S E  E  S S E  E  S  S S  S S  S S  S  
------------------------------------------------|
----------x-------x-x---------------------------|
----------x-------x-x---------------------------|
--0--0----x-0--0--x-x-0--0----------------------|
--0--0----x-0--0--x-x-0--0--5S-6-6S-3-3S-5-5S-6-|
--0--0----x-0--0--x-x-0--0----------------------|


  E  E  S S E  E  S S E  E  S  S S  S S  S E   
----------------------------------------------|
----------x-------x-x-------------------------|
----------x-------x-x-------7S-8-8S-7-7S-8-5--|
--0--0----x-0--0--x-x-0--0--------------------|
--0--0----x-0--0--x-x-0--0--5S-6-6S-5-5S-6-3--|
--0--0----x-0--0--x-x-0--0--------------------|


  E  E  S S E  E  S S E  E  S  S S  S S  S S  S  
------------------------------------------------|
----------x-------x-x---------------------------|
----------x-------x-x---------------------------|
--0--0----x-0--0--x-x-0--0----------------------|
--0--0----x-0--0--x-x-0--0--5S-6-6S-3-3S-5-5S-6-|
--0--0----x-0--0--x-x-0--0----------------------|


  E  E  S S E  E  S S E  E  S  S S  S S  S E     S E.  Q    Q    S S S S  
----------------------------------------------|--------------------------|
----------x-------x-x-------------------------|--------------------------|
----------x-------x-x-------7S-8-8S-7-7S-8-5--|--------------------------|
--0--0----x-0--0--x-x-0--0--------------------|----------------------7-6-|
--0--0----x-0--0--x-x-0--0--5S-6-6S-5-5S-6-3--|--0-------------------5-6-|
--0--0----x-0--0--x-x-0--0--------------------|--0---------------0-0---6-|


  H        E  S S S S S S     S  S   S  S  S   S  S  S   S  S  S   S S S S S  
--------------------------|--------------------------------------------------|
--------------------------|--------------------------------------------------|
--------------------------|--------------------------------------------------|
------------------7-6-----|----------------------------------------------7-6-|
------------------5-6-----|--12-10h-12-12-10h-12-12-10h-12-12-10h-12-----5-6-|
--------------0-0---6-0-0-|--12-10h-12-12-10h-12-12-10h-12-12-10h-12-0-0---6-|


  S  S  S   S  S  S   S  S  S   S S S S E.      H         
---------------------------------------------|-----------|
---------------------------------------------|-----------|
---------------------------------------------|-----------|
--------------------------------------7-6S---|-----------|
----12-10h-12-12-10h-12-12-10h-12-----5-6S---|-----------|
--0-12-10h-12-12-10h-12-12-10h-12-0-0---6S---|-----------|


  S E  S E  S S S E  S S E.     S E  S E  S S S E  S  S   E.    
-----------------------------|---------------------------------|
-----------------------------|---------------------------------|
-----------------------------|---------------------------------|
----6--6------6-L-6--6-------|----6--6------6-L-6--------------|
----6--6------6-L-6--6-------|----6--6------6-L-6--------------|
--0-6--6-0--0-6-L-6--6-0-0---|--0-6--6-0--0-6-L-6--0-16S-17S---|


  S E  S E  S S S E  S S E  S    S E  S E  S S S E  S  Q      
------------------------------|------------------------------|
------------------------------|------------------------------|
------------------------------|------------------------------|
----6--6------6-L-6-----------|----6--6------6-L-6-----------|
----6--6------6-L-6-----------|----6--6------6-L-6-----------|
--0-6--6-0--0-6-L-6--0-0-0--0-|--0-6--6-0--0-6-L-6--0-13S----|


  E  E  S S E  E  S S E  E  S  S S  S S  S S  S  
------------------------------------------------|
----------x-------x-x---------------------------|
----------x-------x-x---------------------------|
--0--0----x-0--0--x-x-0--0----------------------|
--0--0----x-0--0--x-x-0--0--5S-6-6S-3-3S-5-5S-6-|
--0--0----x-0--0--x-x-0--0----------------------|


  E  E  S S E  E  S S E  E  S  S S  S S  S E   
----------------------------------------------|
----------x-------x-x-------------------------|
----------x-------x-x-------7S-8-8S-7-7S-8-5--|
--0--0----x-0--0--x-x-0--0--------------------|
--0--0----x-0--0--x-x-0--0--5S-6-6S-5-5S-6-3--|
--0--0----x-0--0--x-x-0--0--------------------|


  E  E  S S E  E  S S E  E  S  S S  S S  S S  S  
------------------------------------------------|
----------x-------x-x---------------------------|
----------x-------x-x---------------------------|
--0--0----x-0--0--x-x-0--0----------------------|
--0--0----x-0--0--x-x-0--0--5S-6-6S-3-3S-5-5S-6-|
--0--0----x-0--0--x-x-0--0----------------------|


  E  E  S S E  E  S S E   S  S  S  S  S  S  S  S  S   S    W                 
--------------------------------------------------------|-------------------|
----------x-------x-x-------13----13----13----13--------|-------------------|
----------x-------x-x-----------------------------------|-------------------|
--0--0----x-0--0--x-x-0--10----10----10----10----12p-10-|-------------------|
--0--0----x-0--0--x-x-0---------------------------------|-------------------|
--0--0----x-0--0--x-x-0---------------------------------|-------------------|


  W                   E  E  S S E  E  S S E  E  H         
-------------------|-------------------------------------|
-------------------|----------x-------x-x----------------|
-------------------|----------x-------x-x----------------|
-------------------|--0--0----x-0--0--x-x-0--0-----------|
-------------------|--0--0----x-0--0--x-x-0--0-----------|
-------------------|--0--0----x-0--0--x-x-0--0-----------|


  E  E  S S E  E  S S E  E  E   Q.         E  E  S S E  E  S S E  E  H         
----------------------------------------|-------------------------------------|
----------x-------x-x-------------------|----------x-------x-x----------------|
----------x-------x-x-------------------|----------x-------x-x----------------|
--0--0----x-0--0--x-x-0--0-----13S------|--0--0----x-0--0--x-x-0--0-----------|
--0--0----x-0--0--x-x-0--0-----13S------|--0--0----x-0--0--x-x-0--0-----------|
--0--0----x-0--0--x-x-0--0-----13S------|--0--0----x-0--0--x-x-0--0-----------|


  E  E  S S E  E  S S E  E  H          
-------------------------------------||
----------x-------x-x----------------||
----------x-------x-x----------------||
--0--0----x-0--0--x-x-0--0-----------||
--0--0----x-0--0--x-x-0--0-----------||
--0--0----x-0--0--x-x-0--0-----------||






Duration Legend
---------------
W - whole
H - half
Q - quarter
E - 8th
S - 16th
T - 32nd
X - 64th
. - note dotted
|-n-|  - n-tuplets


Tablature Legend
----------------
L - tied note
x - dead note
g - grace note
(n) - ghost note
> - accentuded note
NH - natural harmonic
AH - artificial harmonic
TH - tapped harmonic
SH - semi harmonic
PH - pitch harmonic
h - hammer on
p - pull off
b - bend
br - bendRelease
pb - preBend
pbr - preBendRelease
brb - bendReleaseBend
\n/ - tremolo bar dip
\n - tremolo bar dive
-/n - tremolo bar Release up
/n\ - tremolo bar inverted dip
/n - tremolo bar return
-\n - tremolo bar Release down
S - shift slide
s - legato slide
/ -  slide into from below or out of upwards
\ -  slide into from above or out of downwards
~ - vibrato
W - wide vibrato
tr - trill
TP - tremolo picking
T - tapping
S - slap
P - pop
< - fade in
^ - brush up
v - brush down
Добавлено: 30.11.2013
Другие материалы по этой песне:
  • Аккорды и текст

Страница создана 26.04.2012
http://primanota.ru/sevendust/feel-so-chords.htm
Привет, Гость.
Предлагаем пройти революционный курс по гитаре.
Подарок от PrimaNota.Ru, забирай!