PrimaNota.ru - самый крупный в мире бесплатный архив песенных текстов, аккордов, табулатур и нот


Sevendust - Faithless - таба, видео

Регистрация Запомнить меня
Войти через:  Facebook Google Twitter Vk Yandex Mail.ru

Sevendust - Faithless - таба, видео

Печатать
Просмотров: 70
----------------------------------------------------------------------------
                             Faithless
                             Sevendust
----------------------------------------------------------------------------

There is a very interesting use of harmony in this song, which is why I like this 
song so much. Sevendust is just full of originality. Enjoy!

Username: dkm817 (same on X box live)
Youtube Cover: http://www.youtube.com/watch?v=e5E5gB47FMI
Email: guitardrums@rockfan.com

Guitar 1 Rhythmic (B  F# B  E  G# C# )
Guitar 2 Lead     (B  F# B  E  G# C# )

NOTE: This was exported off of guitar pro.

Guitar 1

       |---3--|  |---3--|      |--3--|  |--3--|  |---3--|  |--3--|   
       E  E   E  E   E  E      E  E  E  E  E  E  E   E  E  E  E  E   
C#||-----------------------|----------------------------------------|
G#||-----------------------|----------------------------------------|
E ||-----------------------|----------------------------------------|
B ||-----------------------|----------------------------------------|
F#||-----------------------|----------------------------------------|
B ||--10--0--10--0--10--0--|--10--0--0--0-----0-----10--0--0-----0--|


     PM PM                                 
  |--3--|   |--3--|   |---3--|  |---3--|   
  E  E  E   E  E  E   E  E   E  E   E  E   
------------------------------------------|
------------------------------------------|
------------------------------------------|
------------------------------------------|
------------------------------------------|
-----0--0--10--0--0--10--0--10--0--10--0--|


   |--3--|  |--3--|  |---3--|  |--3--|   
   E  E  E  E  E  E  E   E  E  E  E  E   
----------------------------------------|
----------------------------------------|
----------------------------------------|
----------------------------------------|
----------------------------------------|
--10--0--0--0-----0-----10--0--0-----0--|


     PM PM                                 
  |--3--|   |--3--|   |---3--|  |---3--|   
  E  E  E   E  E  E   E  E   E  E   E  E   
------------------------------------------|
------------------------------------------|
------------------------------------------|
------------------------------------------|
------------------------------------------|
-----0--0--10--0--0--10--0--10--0--10--0--|


   |--3--|  |--3--|  |---3--|  |--3--|   
   E  E  E  E  E  E  E   E  E  E  E  E   
----------------------------------------|
----------------------------------------|
----------------------------------------|
----------------------------------------|
----------------------------------------|
--10--0--0--0-----0-----10--0--0-----0--|


     PM PM                                 
  |--3--|   |--3--|   |---3--|  |---3--|   
  E  E  E   E  E  E   E  E   E  E   E  E   
------------------------------------------|
------------------------------------------|
------------------------------------------|
------------------------------------------|
------------------------------------------|
-----0--0--10--0--0--10--0--10--0--10--0--|


                                              PM PM             
   |--3--|  |--3--|  |---3--|  |--3--|     |--3--|   |---3--|   
   E  E  E  E  E  E  E   E  E  E  E  E     E  E  E   E  E   E   
----------------------------------------|----------------------|
----------------------------------------|----------------------|
----------------------------------------|----------------------|
----------------------------------------|----------------------|
----------------------------------------|----------------------|
--10--0--0--0-----0-----10--0--0-----0--|-----0--0--10--0--10--|


-------------------|-----------|-----------|-----------|-----------|-----------|
-------------------|-----------|-----------|-----------|-----------|-----------|
-------------------|-----------|-----------|-----------|-----------|-----------|
-------------------|-----------|-----------|-----------|-----------|-----------|
-------------------|-----------|-----------|-----------|-----------|-----------|
-------------------|-----------|-----------|-----------|-----------|-----------|


                                PM   PM PM PM               
                           |------3-----|  |-3|    |--3-|   
                           Q    Q    E  E  E  Q    Q    E   
-----------|-----------|-----------------------------------|
-----------|-----------|--10-------------------------------|
-----------|-----------|---8-------------------------------|
-----------|-----------|---7----0----0--0--0---------------|
-----------|-----------|---6----0----0--0--0---------------|
-----------|-----------|--------0----0--0--0---------------|


        PM   PM PM PM                       PM   PM PM PM               
   |------3-----|  |-3|    |--3-|      |------3-----|  |-3|    |--3-|   
   Q    Q    E  E  E  Q    Q    E      Q    Q    E  E  E  Q    Q    E   
-----------------------------------|-----------------------------------|
--10-------------------------------|--10-------------------------------|
---8-------------------------------|---8-------------------------------|
---7----0----0--0--0---------------|---7----0----0--0--0---------------|
---6----0----0--0--0---------------|---6----0----0--0--0---------------|
--------0----0--0--0---------------|--------0----0--0--0---------------|


        PM   PM PM PM                                                          
   |------3-----|  |-3|    |--3-|      |---3--|  |---3--|  |--3-|   |---3--|   
   Q    Q    E  E  E  Q    Q    E      E  E   E  E   E  E  Q    E   E  E   E   
-----------------------------------|------------------------------------------|
--10-------------------------------|------------------------------------------|
---8-------------------------------|------------------------------------------|
---7----0----0--0--0---------------|------------------------------------------|
---6----0----0--0--0---------------|-----------------------8----L-------------|
--------0----0--0--0---------------|--12--0--11--0--12--0----------12--0--11--|


                      PM  PM  PM             
  |---3--|   |--3-|   |---3---|   |---3--|   
  E   E  E   Q    E   E   E   E   E   E  E   
--------------------------------------------|
--------------------------------------------|
--------------------------------------------|
--------------------------------------------|
------------10----L--12--12--12--13--12-----|
--0--12--0-------------------------------0--|


   |---3--|  |---3--|  |--3-|   |---3--|   
   E  E   E  E   E  E  Q    E   E  E   E   
------------------------------------------|
------------------------------------------|
------------------------------------------|
------------------------------------------|
-----------------------8----L-------------|
--12--0--11--0--12--0----------12--0--11--|


                      PM  PM  PM            
  |---3--|   |--3-|   |---3---|   |-3|      
  E   E  E   Q    E   E   E   E   E  Q      
-------------------------------------------|
-------------------------------------------|
-------------------------------------------|
-------------------------------------------|
------------10----L--12--12--12--13--L\----|
--0--12--0---------------------------------|


   |--3--|  |--3--|  |---3--|  |--3--|   
   E  E  E  E  E  E  E   E  E  E  E  E   
----------------------------------------|
----------------------------------------|
----------------------------------------|
----------------------------------------|
----------------------------------------|
--10--0--0--0-----0-----10--0--0-----0--|


     PM PM                                 
  |--3--|   |--3--|   |---3--|  |---3--|   
  E  E  E   E  E  E   E  E   E  E   E  E   
------------------------------------------|
------------------------------------------|
------------------------------------------|
------------------------------------------|
------------------------------------------|
-----0--0--10--0--0--10--0--10--0--10--0--|


   |--3--|  |--3--|  |---3--|  |--3--|   
   E  E  E  E  E  E  E   E  E  E  E  E   
----------------------------------------|
----------------------------------------|
----------------------------------------|
----------------------------------------|
----------------------------------------|
--10--0--0--0-----0-----10--0--0-----0--|


     PM PM                                 
  |--3--|   |--3--|   |---3--|  |---3--|   
  E  E  E   E  E  E   E  E   E  E   E  E   
------------------------------------------|
------------------------------------------|
------------------------------------------|
------------------------------------------|
------------------------------------------|
-----0--0--10--0--0--10--0--10--0--10--0--|


   |--3--|  |--3--|  |---3--|  |--3--|   
   E  E  E  E  E  E  E   E  E  E  E  E   
----------------------------------------|
----------------------------------------|
----------------------------------------|
----------------------------------------|
----------------------------------------|
--10--0--0--0-----0-----10--0--0-----0--|


     PM PM                                 
  |--3--|   |--3--|   |---3--|  |---3--|   
  E  E  E   E  E  E   E  E   E  E   E  E   
------------------------------------------|
------------------------------------------|
------------------------------------------|
------------------------------------------|
------------------------------------------|
-----0--0--10--0--0--10--0--10--0--10--0--|


                                              PM PM             
   |--3--|  |--3--|  |---3--|  |--3--|     |--3--|   |---3--|   
   E  E  E  E  E  E  E   E  E  E  E  E     E  E  E   E  E   E   
----------------------------------------|----------------------|
----------------------------------------|----------------------|
----------------------------------------|----------------------|
----------------------------------------|----------------------|
----------------------------------------|----------------------|
--10--0--0--0-----0-----10--0--0-----0--|-----0--0--10--0--10--|


            |--3-|                                           |--3-|        
  Q    Q    Q    E  Q       Q    Q    Q    Q       Q    Q    Q    E  Q     
-------------------------|----------------------|-------------------------|
------------6------------|-------3---------L----|------------6------------|
-------9----L----9--5----|--7----L----0----2----|-------9----L----9--5----|
-------------------------|----------------------|-------------------------|
-------------------------|----------------------|-------------------------|
--0-----------------L----|-----------------L----|--0-----------------L----|


  Q    Q    Q    Q       W                   W                 
----------------------|-------------------|-------------------|
-------3---------L----|--L----------------|--L----------------|
--7----L----2----L----|--L----------------|--L----------------|
----------------------|-------------------|-------------------|
----------------------|-------------------|-------------------|
-----------------L----|--L----------------|--L----------------|


  W                                                                             
-------------------|-------------------|-------------------|-------------------|
--L----------------|-------------------|-------------------|-------------------|
--L----------------|-------------------|-------------------|-------------------|
-------------------|-------------------|-------------------|-------------------|
-------------------|-------------------|-------------------|-------------------|
--L----------------|-------------------|-------------------|-------------------|


                                                PM   PM PM PM               
                                           |------3-----|  |-3|    |--3-|   
                                           Q    Q    E  E  E  Q    Q    E   
-------------------|-------------------|-----------------------------------|
-------------------|-------------------|--10-------------------------------|
-------------------|-------------------|---8-------------------------------|
-------------------|-------------------|---7----0----0--0--0---------------|
-------------------|-------------------|---6----0----0--0--0---------------|
-------------------|-------------------|--------0----0--0--0---------------|


        PM   PM PM PM                       PM   PM PM PM               
   |------3-----|  |-3|    |--3-|      |------3-----|  |-3|    |--3-|   
   Q    Q    E  E  E  Q    Q    E      Q    Q    E  E  E  Q    Q    E   
-----------------------------------|-----------------------------------|
--10-------------------------------|--10-------------------------------|
---8-------------------------------|---8-------------------------------|
---7----0----0--0--0---------------|---7----0----0--0--0---------------|
---6----0----0--0--0---------------|---6----0----0--0--0---------------|
--------0----0--0--0---------------|--------0----0--0--0---------------|


        PM   PM PM PM                                                          
   |------3-----|  |-3|    |--3-|      |---3--|  |---3--|  |--3-|   |---3--|   
   Q    Q    E  E  E  Q    Q    E      E  E   E  E   E  E  Q    E   E  E   E   
-----------------------------------|------------------------------------------|
--10-------------------------------|------------------------------------------|
---8-------------------------------|------------------------------------------|
---7----0----0--0--0---------------|------------------------------------------|
---6----0----0--0--0---------------|-----------------------8----L-------------|
--------0----0--0--0---------------|--12--0--11--0--12--0----------12--0--11--|


               PH       PM  PM  PM             
  |---3--|     |--3-|   |---3---|   |---3--|   
  E   E  E     Q    E   E   E   E   E   E  E   
----------------------------------------------|
----------------------------------------------|
----------------------------------------------|
----------------------------------------------|
------------<>10----L--12--12--12--13--12-----|
--0--12--0---------------------------------0--|


   |---3--|  |---3--|  |--3-|   |---3--|   
   E  E   E  E   E  E  Q    E   E  E   E   
------------------------------------------|
------------------------------------------|
------------------------------------------|
------------------------------------------|
-----------------------8----L-------------|
--12--0--11--0--12--0----------12--0--11--|


                      PM  PM  PM            
  |---3--|   |--3-|   |---3---|   |-3|      
  E   E  E   Q    E   E   E   E   E  Q      
-------------------------------------------|
-------------------------------------------|
-------------------------------------------|
-------------------------------------------|
------------10----L--12--12--12--13--L\----|
--0--12--0---------------------------------|


   |--3--|  |--3--|  |---3--|  |--3--|   
   E  E  E  E  E  E  E   E  E  E  E  E   
----------------------------------------|
----------------------------------------|
----------------------------------------|
----------------------------------------|
----------------------------------------|
--10--0--0--0-----0-----10--0--0-----0--|


     PM PM                                 
  |--3--|   |--3--|   |---3--|  |---3--|   
  E  E  E   E  E  E   E  E   E  E   E  E   
------------------------------------------|
------------------------------------------|
------------------------------------------|
------------------------------------------|
------------------------------------------|
-----0--0--10--0--0--10--0--10--0--10--0--|


   |--3--|  |--3--|  |---3--|  |--3--|   
   E  E  E  E  E  E  E   E  E  E  E  E   
----------------------------------------|
----------------------------------------|
----------------------------------------|
----------------------------------------|
----------------------------------------|
--10--0--0--0-----0-----10--0--0-----0--|


     PM PM                                 
  |--3--|   |--3--|   |---3--|  |---3--|   
  E  E  E   E  E  E   E  E   E  E   E  E   
------------------------------------------|
------------------------------------------|
------------------------------------------|
------------------------------------------|
------------------------------------------|
-----0--0--10--0--0--10--0--10--0--10--0--|


   |--3--|  |--3--|  |---3--|  |--3--|   
   E  E  E  E  E  E  E   E  E  E  E  E   
----------------------------------------|
----------------------------------------|
----------------------------------------|
----------------------------------------|
----------------------------------------|
--10--0--0--0-----0-----10--0--0-----0--|


     PM PM                                 
  |--3--|   |--3--|   |---3--|  |---3--|   
  E  E  E   E  E  E   E  E   E  E   E  E   
------------------------------------------|
------------------------------------------|
------------------------------------------|
------------------------------------------|
------------------------------------------|
-----0--0--10--0--0--10--0--10--0--10--0--|


   |--3--|  |--3--|  |---3--|  |--3--|   
   E  E  E  E  E  E  E   E  E  E  E  E   
----------------------------------------|
----------------------------------------|
----------------------------------------|
----------------------------------------|
----------------------------------------|
--10--0--0--0-----0-----10--0--0-----0--|


     PM PM                                                                      
  |--3--|   |--3--|   |---3--|  |---3--|     |--3-|  |--3--|  |--3-|  |--3--|   
  E  E  E   E  E  E   E  E   E  E   E  E     Q    E  E  E  E  Q    E  E  E  E   
------------------------------------------|------------------------------------|
------------------------------------------|------------------------------------|
------------------------------------------|------------------------------------|
------------------------------------------|--8----8--8--8--8--8----8--8--8--8--|
------------------------------------------|--8----8--8--8--8--8----8--8--8--8--|
-----0--0--10--0--0--10--0--10--0--10--0--|--8----8--8--8--8--8----8--8--8--8--|


   |--3--|   |---3---|   |--3--|   |---3---|   
   Q     E   E   E   E   Q     E   E   E   E   
----------------------------------------------|
----------------------------------------------|
----------------------------------------------|
--10----10--10--10--10--10----10--10--10--10--|
--10----10--10--10--10--10----10--10--10--10--|
--10----10--10--10--10--10----10--10--10--10--|


            PM PM            PM PM               PM PM            PM PM  
  |------3-----|  |------3------|     |------3------|  |------3------|   
  Q    Q    E  E  E  E  Q    E  E     E  E  Q    E  E  E  E  Q    E  E   
-----------------------------------|------------------------------------|
-----------------------------------|------------------------------------|
-----------------------------------|------------------------------------|
-----------------------------------|------------------------------------|
-----------------------------------|------------------------------------|
--0----0----0--0--1--0--0----0--0--|--1--0--0----0--0--1--0--0----0--0--|


  |--3-|  |--3--|  |--3-|  |--3--|   
  Q    E  E  E  E  Q    E  E  E  E   
------------------------------------|
------------------------------------|
------------------------------------|
--8----8--8--8--8--8----8--8--8--8--|
--8----8--8--8--8--8----8--8--8--8--|
--8----8--8--8--8--8----8--8--8--8--|


   |--3--|   |---3---|   |--3--|   |---3---|   
   Q     E   E   E   E   Q     E   E   E   E   
----------------------------------------------|
----------------------------------------------|
----------------------------------------------|
--10----10--10--10--10--10----10--10--10--10--|
--10----10--10--10--10--10----10--10--10--10--|
--10----10--10--10--10--10----10--10--10--10--|


            PM PM            PM PM               PM PM            PM PM  
  |------3-----|  |------3------|     |------3------|  |------3------|   
  Q    Q    E  E  E  E  Q    E  E     E  E  Q    E  E  E  E  Q    E  E   
-----------------------------------|------------------------------------|
-----------------------------------|------------------------------------|
-----------------------------------|------------------------------------|
-----------------------------------|------------------------------------|
-----------------------------------|------------------------------------|
--0----0----0--0--1--0--0----0--0--|--1--0--0----0--0--1--0--0----0--0--|


  |--3-|  |--3--|  |--3-|  |--3--|   
  Q    E  E  E  E  Q    E  E  E  E   
------------------------------------|
------------------------------------|
------------------------------------|
--8----8--8--8--8--8----8--8--8--8--|
--8----8--8--8--8--8----8--8--8--8--|
--8----8--8--8--8--8----8--8--8--8--|


   |--3--|   |---3---|   |--3--|   |---3---|   
   Q     E   E   E   E   Q     E   E   E   E   
----------------------------------------------|
----------------------------------------------|
----------------------------------------------|
--10----10--10--10--10--10----10--10--10--10--|
--10----10--10--10--10--10----10--10--10--10--|
--10----10--10--10--10--10----10--10--10--10--|


                         PH                  
   |---3--|  |---3--|    |--3-|   |---3--|   
   E  E   E  E   E  E    Q    E   E  E   E   
--------------------------------------------|
--------------------------------------------|
--------------------------------------------|
--------------------------------------------|
-----------------------<>8----L-------------|
--12--0--11--0--12--0------------12--0--11--|


                      PM  PM  PM             
  |---3--|   |--3-|   |---3---|   |---3--|   
  E   E  E   Q    E   E   E   E   E   E  E   
--------------------------------------------|
--------------------------------------------|
--------------------------------------------|
--------------------------------------------|
------------10----L--12--12--12--13--12-----|
--0--12--0-------------------------------0--|


   |---3--|  |---3--|  |--3-|   |---3--|   
   E  E   E  E   E  E  Q    E   E  E   E   
------------------------------------------|
------------------------------------------|
------------------------------------------|
------------------------------------------|
-----------------------8----L-------------|
--12--0--11--0--12--0----------12--0--11--|


                      PM  PM  PM                                
  |---3--|   |--3-|   |---3---|   |-3|                          
  E   E  E   Q    E   E   E   E   E  Q        W                 
-------------------------------------------|-------------------|
-------------------------------------------|-------------------|
-------------------------------------------|-------------------|
-------------------------------------------|--0----------------|
------------10----L--12--12--12--13--L\----|--0----------------|
--0--12--0---------------------------------|--0----------------|


  W                   W                   W                                     
-------------------|-------------------|-------------------|-------------------|
-------------------|-------------------|-------------------|-------------------|
-------------------|-------------------|-------------------|-------------------|
--L----------------|--L----------------|--L----------------|-------------------|
--L----------------|--L----------------|--L----------------|-------------------|
--L----------------|--L----------------|--L----------------|-------------------|


                                                              W                 
-------------------|-------------------|-------------------|-------------------|
-------------------|-------------------|-------------------|-------------------|
-------------------|-------------------|-------------------|-------------------|
-------------------|-------------------|-------------------|-------------------|
-------------------|-------------------|-------------------|-------------------|
-------------------|-------------------|-------------------|--0----------------|


  W                   W                   W                   W                 
-------------------|-------------------|-------------------|-------------------|
-------------------|-------------------|-------------------|-------------------|
-------------------|-------------------|-------------------|-------------------|
-------------------|-------------------|-------------------|-------------------|
-------------------|-------------------|-------------------|-------------------|
--L----------------|--8----------------|--L----------------|--7----------------|


  W                   W                   H        H         
-------------------|-------------------|--------------------|
-------------------|-------------------|--------------------|
-------------------|-------------------|--------------------|
-------------------|-------------------|--------------------|
-------------------|-------------------|--------------------|
--L----------------|--5----------------|--3--------2--------|


  W                   W                   W                   W                 
-------------------|-------------------|-------------------|-------------------|
-------------------|-------------------|-------------------|-------------------|
-------------------|-------------------|-------------------|-------------------|
-------------------|-------------------|-------------------|-------------------|
-------------------|-------------------|-------------------|-------------------|
--0----------------|--L----------------|--8----------------|--L----------------|


  W                   W                   W                 
-------------------|-------------------|-------------------|
-------------------|-------------------|-------------------|
-------------------|-------------------|-------------------|
-------------------|-------------------|-------------------|
-------------------|-------------------|-------------------|
--7----------------|--L----------------|--5----------------|


                       PM   PM   PM PM PM                     
                       |------3-----|  |-3|    |--3-|     --- 
  H        H           Q    Q    E  E  E  Q    Q    E         
--------------------|----------------------------------|-----|
--------------------|----------------------------------|-----|
--------------------|----------------------------------|-----|
--------------------|--0----0----0--0--0---------------|-----|
--------------------|--0----0----0--0--0---------------|-----|
--3--------2--------|--0----0----0--0--0---------------|-----|


  PM   PM   PM PM PM                       PM   PM   PM PM PM               
  |------3-----|  |-3|    |--3-|     ---   |------3-----|  |-3|    |--3-|   
  Q    Q    E  E  E  Q    Q    E           Q    Q    E  E  E  Q    Q    E   
----------------------------------|-----|----------------------------------|
----------------------------------|-----|----------------------------------|
----------------------------------|-----|----------------------------------|
--8----8----8--8--8---------------|-----|--7----7----7--7--7---------------|
--8----8----8--8--8---------------|-----|--7----7----7--7--7---------------|
--8----8----8--8--8---------------|-----|--7----7----7--7--7---------------|


  PM   PM   PM PM PM                 PM   PM   PM PM PM               
  |------3-----|  |-3|    |--3-|     |------3-----|  |-3|    |--3-|   
  Q    Q    E  E  E  Q    Q    E     Q    Q    E  E  E  Q    Q    E   
----------------------------------|----------------------------------|
----------------------------------|----------------------------------|
----------------------------------|----------------------------------|
--7----7----7--7--7---------------|--5----5----5--5--5---------------|
--7----7----7--7--7---------------|--5----5----5--5--5---------------|
--7----7----7--7--7---------------|--5----5----5--5--5---------------|


  PM   PM   PM PM PM                       PM   PM PM PM               
  |------3-----|  |-3|    |--3-|      |------3-----|  |-3|    |--3-|   
  Q    Q    E  E  E  Q    Q    E      Q    Q    E  E  E  Q    Q    E   
----------------------------------|-----------------------------------|
----------------------------------|--10-------------------------------|
----------------------------------|---8-------------------------------|
--3----3----3--3--1---------------|---7----0----0--0--0---------------|
--3----3----3--3--1---------------|---6----0----0--0--0---------------|
--3----3----3--3--1---------------|--------0----0--0--0---------------|


        PM   PM PM PM                       PM   PM PM PM               
   |------3-----|  |-3|    |--3-|      |------3-----|  |-3|    |--3-|   
   Q    Q    E  E  E  Q    Q    E      Q    Q    E  E  E  Q    Q    E   
-----------------------------------|-----------------------------------|
--10-------------------------------|--10-------------------------------|
---8-------------------------------|---8-------------------------------|
---7----0----0--0--0---------------|---7----0----0--0--0---------------|
---6----0----0--0--0---------------|---6----0----0--0--0---------------|
--------0----0--0--0---------------|--------0----0--0--0---------------|


        PM   PM PM PM                                                          
   |------3-----|  |-3|    |--3-|      |---3--|  |---3--|  |--3-|   |---3--|   
   Q    Q    E  E  E  Q    Q    E      E  E   E  E   E  E  Q    E   E  E   E   
-----------------------------------|------------------------------------------|
--10-------------------------------|------------------------------------------|
---8-------------------------------|------------------------------------------|
---7----0----0--0--0---------------|------------------------------------------|
---6----0----0--0--0---------------|-----------------------8----L-------------|
--------0----0--0--0---------------|--12--0--11--0--12--0----------12--0--11--|


                      PM  PM  PM             
  |---3--|   |--3-|   |---3---|   |---3--|   
  E   E  E   Q    E   E   E   E   E   E  E   
--------------------------------------------|
--------------------------------------------|
--------------------------------------------|
--------------------------------------------|
------------10----L--12--12--12--13--12-----|
--0--12--0-------------------------------0--|


                         PH                  
   |---3--|  |---3--|    |--3-|   |---3--|   
   E  E   E  E   E  E    Q    E   E  E   E   
--------------------------------------------|
--------------------------------------------|
--------------------------------------------|
--------------------------------------------|
-----------------------<>8----L-------------|
--12--0--11--0--12--0------------12--0--11--|


                      PM  PM  PM            
  |---3--|   |--3-|   |---3---|   |-3|      
  E   E  E   Q    E   E   E   E   E  Q      
-------------------------------------------|
-------------------------------------------|
-------------------------------------------|
-------------------------------------------|
------------10----L--12--12--12--13--L\----|
--0--12--0---------------------------------|


   |--3--|  |--3--|  |---3--|  |--3--|   
   E  E  E  E  E  E  E   E  E  E  E  E   
----------------------------------------|
----------------------------------------|
----------------------------------------|
----------------------------------------|
----------------------------------------|
--10--0--0--0-----0-----10--0--0-----0--|


     PM PM                                 
  |--3--|   |--3--|   |---3--|  |---3--|   
  E  E  E   E  E  E   E  E   E  E   E  E   
------------------------------------------|
------------------------------------------|
------------------------------------------|
------------------------------------------|
------------------------------------------|
-----0--0--10--0--0--10--0--10--0--10--0--|


   |--3--|  |--3--|  |---3--|  |--3--|   
   E  E  E  E  E  E  E   E  E  E  E  E   
----------------------------------------|
----------------------------------------|
----------------------------------------|
----------------------------------------|
----------------------------------------|
--10--0--0--0-----0-----10--0--0-----0--|


     PM PM                                 
  |--3--|   |--3--|   |---3--|  |---3--|   
  E  E  E   E  E  E   E  E   E  E   E  E   
------------------------------------------|
------------------------------------------|
------------------------------------------|
------------------------------------------|
------------------------------------------|
-----0--0--10--0--0--10--0--10--0--10--0--|


   |--3--|  |--3--|  |---3--|  |--3--|   
   E  E  E  E  E  E  E   E  E  E  E  E   
----------------------------------------|
----------------------------------------|
----------------------------------------|
----------------------------------------|
----------------------------------------|
--10--0--0--0-----0-----10--0--0-----0--|


     PM PM                                 
  |--3--|   |--3--|   |---3--|  |---3--|   
  E  E  E   E  E  E   E  E   E  E   E  E   
------------------------------------------|
------------------------------------------|
------------------------------------------|
------------------------------------------|
------------------------------------------|
-----0--0--10--0--0--10--0--10--0--10--0--|


   |--3--|  |--3--|  |---3--|  |--3--|   
   E  E  E  E  E  E  E   E  E  E  E  E   
----------------------------------------|
----------------------------------------|
----------------------------------------|
----------------------------------------|
----------------------------------------|
--10--0--0--0-----0-----10--0--0-----0--|


     PM PM                                                                      
  |--3--|   |--3--|   |---3--|  |---3--|     |--3-|  |--3--|  |--3-|  |--3--|   
  E  E  E   E  E  E   E  E   E  E   E  E     Q    E  E  E  E  Q    E  E  E  E   
------------------------------------------|------------------------------------|
------------------------------------------|------------------------------------|
------------------------------------------|------------------------------------|
------------------------------------------|--8----8--8--8--8--8----8--8--8--8--|
------------------------------------------|--8----8--8--8--8--8----8--8--8--8--|
-----0--0--10--0--0--10--0--10--0--10--0--|--8----8--8--8--8--8----8--8--8--8--|


   |--3--|   |---3---|   |--3--|   |---3---|   
   Q     E   E   E   E   Q     E   E   E   E   
----------------------------------------------|
----------------------------------------------|
----------------------------------------------|
--10----10--10--10--10--10----10--10--10--10--|
--10----10--10--10--10--10----10--10--10--10--|
--10----10--10--10--10--10----10--10--10--10--|


            PM PM            PM PM               PM PM            PM PM  
  |------3-----|  |------3------|     |------3------|  |------3------|   
  Q    Q    E  E  E  E  Q    E  E     E  E  Q    E  E  E  E  Q    E  E   
-----------------------------------|------------------------------------|
-----------------------------------|------------------------------------|
-----------------------------------|------------------------------------|
-----------------------------------|------------------------------------|
-----------------------------------|------------------------------------|
--0----0----0--0--1--0--0----0--0--|--1--0--0----0--0--1--0--0----0--0--|


  |--3-|  |--3--|  |--3-|  |--3--|   
  Q    E  E  E  E  Q    E  E  E  E   
------------------------------------|
------------------------------------|
------------------------------------|
--8----8--8--8--8--8----8--8--8--8--|
--8----8--8--8--8--8----8--8--8--8--|
--8----8--8--8--8--8----8--8--8--8--|


   |--3--|   |---3---|   |--3--|   |---3---|   
   Q     E   E   E   E   Q     E   E   E   E   
----------------------------------------------|
----------------------------------------------|
----------------------------------------------|
--10----10--10--10--10--10----10--10--10--10--|
--10----10--10--10--10--10----10--10--10--10--|
--10----10--10--10--10--10----10--10--10--10--|


            PM PM            PM PM               PM PM            PM PM  
  |------3-----|  |------3------|     |------3------|  |------3------|   
  Q    Q    E  E  E  E  Q    E  E     E  E  Q    E  E  E  E  Q    E  E   
-----------------------------------|------------------------------------|
-----------------------------------|------------------------------------|
-----------------------------------|------------------------------------|
-----------------------------------|------------------------------------|
-----------------------------------|------------------------------------|
--0----0----0--0--1--0--0----0--0--|--1--0--0----0--0--1--0--0----0--0--|


  |--3-|  |--3--|  |--3-|  |--3--|   
  Q    E  E  E  E  Q    E  E  E  E   
------------------------------------|
------------------------------------|
------------------------------------|
--8----8--8--8--8--8----8--8--8--8--|
--8----8--8--8--8--8----8--8--8--8--|
--8----8--8--8--8--8----8--8--8--8--|


   |--3--|   |---3---|   |--3--|   |---3---|   
   Q     E   E   E   E   Q     E   E   E   E   
----------------------------------------------|
----------------------------------------------|
----------------------------------------------|
--10----10--10--10--10--10----10--10--10--10--|
--10----10--10--10--10--10----10--10--10--10--|
--10----10--10--10--10--10----10--10--10--10--|


  |--3-|  |--3--|  |--3-|  |--3--|     |--3-|  |--3--|  |--3-|  |--3--|   
  Q    E  E  E  E  Q    E  E  E  E     Q    E  E  E  E  Q    E  E  E  E   
------------------------------------|------------------------------------|
------------------------------------|------------------------------------|
------------------------------------|------------------------------------|
--5----5--5--5--5--5----5--5--5--5--|--3----3--3--3--3--1----1--1--1--1--|
--5----5--5--5--5--5----5--5--5--5--|--3----3--3--3--3--1----1--1--1--1--|
--5----5--5--5--5--5----5--5--5--5--|--3----3--3--3--3--1----1--1--1--1--|


                                            PM PM                             
  |--3--|  |--3--|  |--3--|  |--3--|     |--3--|  |--3--|  |--3--|  |--3--|   
  E  E  E  E  E  E  E  E  E  E  E  E     E  E  E  E  E  E  E  E  E  E  E  E   
--------------------------------------|--------------------------------------|
--------------------------------------|--------------------------------------|
--------------------------------------|--------------------------------------|
--------------------------------------|--------------------------------------|
--------------------------------------|--------------------------------------|
--1--0--0--0-----0-----1--0--0-----0--|-----0--0--1--0--0--1--0--1--0--1--0--|


                                            PM PM                             
  |--3--|  |--3--|  |--3--|  |--3--|     |--3--|  |--3--|  |--3--|  |--3--|   
  E  E  E  E  E  E  E  E  E  E  E  E     E  E  E  E  E  E  E  E  E  E  E  E   
--------------------------------------|--------------------------------------|
--------------------------------------|--------------------------------------|
--------------------------------------|--------------------------------------|
--------------------------------------|--------------------------------------|
--------------------------------------|--------------------------------------|
--1--0--0--0-----0-----1--0--0-----0--|-----0--0--1--0--0--1--0--1--0--1--0--|


                                            PM PM                             
  |--3--|  |--3--|  |--3--|  |--3--|     |--3--|  |--3--|  |--3--|  |--3--|   
  E  E  E  E  E  E  E  E  E  E  E  E     E  E  E  E  E  E  E  E  E  E  E  E   
--------------------------------------|--------------------------------------|
--------------------------------------|--------------------------------------|
--------------------------------------|--------------------------------------|
--------------------------------------|--------------------------------------|
--------------------------------------|--------------------------------------|
--1--0--0--0-----0-----1--0--0-----0--|-----0--0--1--0--0--1--0--1--0--1--0--|


                                            PM PM                             
  |--3--|  |--3--|  |--3--|  |--3--|     |--3--|  |--3--|  |--3--|  |--3--|   
  E  E  E  E  E  E  E  E  E  E  E  E     E  E  E  E  E  E  E  E  E  E  E  E   
--------------------------------------|--------------------------------------|
--------------------------------------|--------------------------------------|
--------------------------------------|--------------------------------------|
--------------------------------------|--------------------------------------|
--------------------------------------|--------------------------------------|
--1--0--0--0-----0-----1--0--0-----0--|-----0--0--1--0--0--1--0--1--0--1--0--|


  PM PM PM PM    PM    PM PM PM    PM       PM PM                             
  |--3--|  |--3--|  |--3--|  |--3--|     |--3--|  |--3--|  |--3--|  |--3--|   
  E  E  E  E  E  E  E  E  E  E  E  E     E  E  E  E  E  E  E  E  E  E  E  E   
--------------------------------------|--------------------------------------|
--------------------------------------|--------------------------------------|
--------------------------------------|--------------------------------------|
--0--0--0--0-----0-----0--0--0-----0--|--------------------------------------|
--0--0--0--0-----0-----0--0--0-----0--|--------------------------------------|
--0--0--0--0-----0-----0--0--0-----0--|-----0--0--1--0--0--1--0--1--0--1--0--|


  PM PM PM PM    PM    PM PM PM    PM       PM PM                             
  |--3--|  |--3--|  |--3--|  |--3--|     |--3--|  |--3--|  |--3--|  |--3--|   
  E  E  E  E  E  E  E  E  E  E  E  E     E  E  E  E  E  E  E  E  E  E  E  E   
--------------------------------------|--------------------------------------|
--------------------------------------|--------------------------------------|
--------------------------------------|--------------------------------------|
--0--0--0--0-----0-----0--0--0-----0--|--------------------------------------|
--0--0--0--0-----0-----0--0--0-----0--|--------------------------------------|
--0--0--0--0-----0-----0--0--0-----0--|-----0--0--1--0--0--1--0--1--0--1--0--|


  PM PM PM PM    PM    PM PM PM    PM       PM PM                             
  |--3--|  |--3--|  |--3--|  |--3--|     |--3--|  |--3--|  |--3--|  |--3--|   
  E  E  E  E  E  E  E  E  E  E  E  E     E  E  E  E  E  E  E  E  E  E  E  E   
--------------------------------------|--------------------------------------|
--------------------------------------|--------------------------------------|
--------------------------------------|--------------------------------------|
--0--0--0--0-----0-----0--0--0-----0--|--------------------------------------|
--0--0--0--0-----0-----0--0--0-----0--|--------------------------------------|
--0--0--0--0-----0-----0--0--0-----0--|-----0--0--1--0--0--1--0--1--0--1--0--|


  PM PM PM PM    PM    PM PM PM    PM       PM PM                             
  |--3--|  |--3--|  |--3--|  |--3--|     |--3--|  |--3--|  |--3--|  |--3--|   
  E  E  E  E  E  E  E  E  E  E  E  E     E  E  E  E  E  E  E  E  E  E  E  E   
--------------------------------------|--------------------------------------|
--------------------------------------|--------------------------------------|
--------------------------------------|--------------------------------------|
--0--0--0--0-----0-----0--0--0-----0--|--------------------------------------|
--0--0--0--0-----0-----0--0--0-----0--|--------------------------------------|
--0--0--0--0-----0-----0--0--0-----0--|-----0--0--1--0--0--1--0--1--0--1--0--|


Guitar 2

       |---3--|  |---3--|      |--3--|  |--3--|  |---3--|  |--3--|   
       E  E   E  E   E  E      E  E  E  E  E  E  E   E  E  E  E  E   
C#||-----------------------|----------------------------------------|
G#||-----------------------|----------------------------------------|
E ||-----------------------|----------------------------------------|
B ||-----------------------|----------------------------------------|
F#||-----------------------|----------------------------------------|
B ||--13--0--13--0--13--0--|--13--0--0--0-----0-----13--0--0-----0--|


     PM PM                                 
  |--3--|   |--3--|   |---3--|  |---3--|   
  E  E  E   E  E  E   E  E   E  E   E  E   
------------------------------------------|
------------------------------------------|
------------------------------------------|
------------------------------------------|
------------------------------------------|
-----0--0--13--0--0--13--0--13--0--13--0--|


   |--3--|  |--3--|  |---3--|  |--3--|   
   E  E  E  E  E  E  E   E  E  E  E  E   
----------------------------------------|
----------------------------------------|
----------------------------------------|
----------------------------------------|
----------------------------------------|
--13--0--0--0-----0-----13--0--0-----0--|


     PM PM                                 
  |--3--|   |--3--|   |---3--|  |---3--|   
  E  E  E   E  E  E   E  E   E  E   E  E   
------------------------------------------|
------------------------------------------|
------------------------------------------|
------------------------------------------|
------------------------------------------|
-----0--0--13--0--0--13--0--13--0--13--0--|


   |--3--|  |--3--|  |---3--|  |--3--|   
   E  E  E  E  E  E  E   E  E  E  E  E   
----------------------------------------|
----------------------------------------|
----------------------------------------|
----------------------------------------|
----------------------------------------|
--13--0--0--0-----0-----13--0--0-----0--|


     PM PM                                 
  |--3--|   |--3--|   |---3--|  |---3--|   
  E  E  E   E  E  E   E  E   E  E   E  E   
------------------------------------------|
------------------------------------------|
------------------------------------------|
------------------------------------------|
------------------------------------------|
-----0--0--13--0--0--13--0--13--0--13--0--|


                                              PM PM             
   |--3--|  |--3--|  |---3--|  |--3--|     |--3--|   |---3--|   
   E  E  E  E  E  E  E   E  E  E  E  E     E  E  E   E  E   E   
----------------------------------------|----------------------|
----------------------------------------|----------------------|
----------------------------------------|----------------------|
----------------------------------------|----------------------|
----------------------------------------|----------------------|
--13--0--0--0-----0-----13--0--0-----0--|-----0--0--13--0--13--|


   W                    H         H            W                 
--------------------|----------------------|--------------------|
--15----------------|------------13--------|--------------------|
--------------------|--12------------------|--14----------------|
--------------------|----------------------|--------------------|
--------------------|----------------------|--------------------|
--------------------|----------------------|--------------------|


   H         H            W                    W                 
--13--------12--------|--------------------|--------------------|
----------------------|--13----------------|--15----------------|
----------------------|--------------------|--------------------|
----------------------|--------------------|--------------------|
----------------------|--------------------|--------------------|
----------------------|--------------------|--------------------|


                                                    PM   PM PM PM               
                                               |------3-----|  |-3|    |--3-|   
   W                    H         H            Q    Q    E  E  E  Q    Q    E   
--------------------|----------------------|-----------------------------------|
--------------------|------------13--------|--10-------------------------------|
--14----------------|--12------------------|---8-------------------------------|
--------------------|----------------------|---7----0----0--0--0---------------|
--------------------|----------------------|---6----0----0--0--0---------------|
--------------------|----------------------|--------0----0--0--0---------------|


        PM   PM PM PM                       PM   PM PM PM               
   |------3-----|  |-3|    |--3-|      |------3-----|  |-3|    |--3-|   
   Q    Q    E  E  E  Q    Q    E      Q    Q    E  E  E  Q    Q    E   
-----------------------------------|-----------------------------------|
--10-------------------------------|--10-------------------------------|
---8-------------------------------|---8-------------------------------|
---7----0----0--0--0---------------|---7----0----0--0--0---------------|
---6----0----0--0--0---------------|---6----0----0--0--0---------------|
--------0----0--0--0---------------|--------0----0--0--0---------------|


        PM   PM PM PM                                                          
   |------3-----|  |-3|    |--3-|      |---3--|  |---3--|  |--3-|   |---3--|   
   Q    Q    E  E  E  Q    Q    E      E  E   E  E   E  E  Q    E   E  E   E   
-----------------------------------|------------------------------------------|
--10-------------------------------|------------------------------------------|
---8-------------------------------|------------------------------------------|
---7----0----0--0--0---------------|------------------------------------------|
---6----0----0--0--0---------------|-----------------------8----L-------------|
--------0----0--0--0---------------|--12--0--11--0--12--0----------12--0--11--|


                      PM  PM  PM             
  |---3--|   |--3-|   |---3---|   |---3--|   
  E   E  E   Q    E   E   E   E   E   E  E   
--------------------------------------------|
--------------------------------------------|
--------------------------------------------|
--------------------------------------------|
------------10----L--12--12--12--13--12-----|
--0--12--0-------------------------------0--|


   |---3--|  |---3--|   |--3-|   |---3--|   
   E  E   E  E   E  E   Q    E   E  E   E   
-------------------------------------------|
-------------------------------------------|
-------------------------------------------|
-------------------------------------------|
-----------------------12----L-------------|
--15--0--14--0--15--0-----------15--0--14--|


                      PM  PM  PM             
  |---3--|   |--3-|   |---3---|   |-3-|      
  E   E  E   Q    E   E   E   E   E   Q      
--------------------------------------------|
--------------------------------------------|
--------------------------------------------|
--------------------------------------------|
------------13----L--15--15--15--17---L\----|
--0--15--0----------------------------------|


   |--3--|  |--3--|  |---3--|  |--3--|   
   E  E  E  E  E  E  E   E  E  E  E  E   
----------------------------------------|
----------------------------------------|
----------------------------------------|
----------------------------------------|
----------------------------------------|
--13--0--0--0-----0-----13--0--0-----0--|


     PM PM                                 
  |--3--|   |--3--|   |---3--|  |---3--|   
  E  E  E   E  E  E   E  E   E  E   E  E   
------------------------------------------|
------------------------------------------|
------------------------------------------|
------------------------------------------|
------------------------------------------|
-----0--0--13--0--0--13--0--13--0--13--0--|


   |--3--|  |--3--|  |---3--|  |--3--|   
   E  E  E  E  E  E  E   E  E  E  E  E   
----------------------------------------|
----------------------------------------|
----------------------------------------|
----------------------------------------|
----------------------------------------|
--13--0--0--0-----0-----13--0--0-----0--|


     PM PM                                 
  |--3--|   |--3--|   |---3--|  |---3--|   
  E  E  E   E  E  E   E  E   E  E   E  E   
------------------------------------------|
------------------------------------------|
------------------------------------------|
------------------------------------------|
------------------------------------------|
-----0--0--13--0--0--13--0--13--0--13--0--|


   |--3--|  |--3--|  |---3--|  |--3--|   
   E  E  E  E  E  E  E   E  E  E  E  E   
----------------------------------------|
----------------------------------------|
----------------------------------------|
----------------------------------------|
----------------------------------------|
--13--0--0--0-----0-----13--0--0-----0--|


     PM PM                                 
  |--3--|   |--3--|   |---3--|  |---3--|   
  E  E  E   E  E  E   E  E   E  E   E  E   
------------------------------------------|
------------------------------------------|
------------------------------------------|
------------------------------------------|
------------------------------------------|
-----0--0--13--0--0--13--0--13--0--13--0--|


                                              PM PM                         
   |--3--|  |--3--|  |---3--|  |--3--|     |--3--|   |---3--|     ---   --- 
   E  E  E  E  E  E  E   E  E  E  E  E     E  E  E   E  E   E               
----------------------------------------|----------------------|-----|-----|
----------------------------------------|----------------------|-----|-----|
----------------------------------------|----------------------|-----|-----|
----------------------------------------|----------------------|-----|-----|
----------------------------------------|----------------------|-----|-----|
--13--0--0--0-----0-----13--0--0-----0--|-----0--0--13--0--13--|-----|-----|


  ---   ---   ---                                              
                    H         Q     Q        W                 
-----|-----|-----|-----------------------|--17----------------|
-----|-----|-----|-----------------17----|--------------------|
-----|-----|-----|-----------19----------|--------------------|
-----|-----|-----|-----------------------|--------------------|
-----|-----|-----|-----------------------|--------------------|
-----|-----|-----|-----------------------|--------------------|


  Q     Q     Q     Q        W                   Q     Q     Q     Q     
--L----------------------|--17----------------|--L----------------------|
-------------------17----|--------------------|-------------------17----|
-------------19----------|--------------------|-------------19----------|
-------19----------------|--------------------|-------19----------------|
-------------------------|--------------------|-------------------------|
-------------------------|--------------------|-------------------------|


   Q     Q     Q     Q        Q     Q     H         
--17----------------------|------------------------|
--------17----------------|--17--------------------|
--------------------19----|--------------19--------|
--------------19----------|--------19--------------|
--------------------------|------------------------|
--------------------------|------------------------|


   |---3---|   |---3---|   |---3---|   |---3---|   
   E   E   E   E   E   E   E   E   E   E   E   E   
--------------------------------------------------|
--10--10--10--10--10--10--10--10--10--10--10--10--|
---x---x---x---x---x---x---x---x---x---x---x---x--|
---7---7---7---7---7---7---7---7---7---7---7---7--|
--------------------------------------------------|
--------------------------------------------------|


   |---3---|   |---3---|   |---3---|   |---3---|   
   E   E   E   E   E   E   E   E   E   E   E   E   
--------------------------------------------------|
--10--10--10--10--10--10--10--10--10--10--10--10--|
---x---x---x---x---x---x---x---x---x---x---x---x--|
---7---7---7---7---7---7---7---7---7---7---7---7--|
--------------------------------------------------|
--------------------------------------------------|


   |---3---|   |---3---|   |---3---|   |---3---|   
   E   E   E   E   E   E   E   E   E   E   E   E   
--------------------------------------------------|
--10--10--10--10--10--10--10--10--10--10--10--10--|
---x---x---x---x---x---x---x---x---x---x---x---x--|
---7---7---7---7---7---7---7---7---7---7---7---7--|
--------------------------------------------------|
--------------------------------------------------|


   |---3---|   |---3---|   |---3---|   |---3---|   
   E   E   E   E   E   E   E   E   E   E   E   E   
--------------------------------------------------|
--10--10--10--10--10--10--10--10--10--10--10--10--|
---x---x---x---x---x---x---x---x---x---x---x---x--|
---7---7---7---7---7---7---7---7---7---7---7---7--|
--------------------------------------------------|
--------------------------------------------------|


   |---3--|  |---3--|  |--3-|   |---3--|   
   E  E   E  E   E  E  Q    E   E  E   E   
------------------------------------------|
------------------------------------------|
------------------------------------------|
------------------------------------------|
-----------------------8----L-------------|
--12--0--11--0--12--0----------12--0--11--|


                      PM  PM  PM             
  |---3--|   |--3-|   |---3---|   |---3--|   
  E   E  E   Q    E   E   E   E   E   E  E   
--------------------------------------------|
--------------------------------------------|
--------------------------------------------|
--------------------------------------------|
------------10----L--12--12--12--13--12-----|
--0--12--0-------------------------------0--|


   |---3--|  |---3--|   |--3-|   |---3--|   
   E  E   E  E   E  E   Q    E   E  E   E   
-------------------------------------------|
-------------------------------------------|
-------------------------------------------|
-------------------------------------------|
-----------------------12----L-------------|
--15--0--14--0--15--0-----------15--0--14--|


                      PM  PM  PM             
  |---3--|   |--3-|   |---3---|   |-3-|      
  E   E  E   Q    E   E   E   E   E   Q      
--------------------------------------------|
--------------------------------------------|
--------------------------------------------|
--------------------------------------------|
------------13----L--15--15--15--17---L\----|
--0--15--0----------------------------------|


   |--3--|  |--3--|  |---3--|  |--3--|   
   E  E  E  E  E  E  E   E  E  E  E  E   
----------------------------------------|
----------------------------------------|
----------------------------------------|
----------------------------------------|
----------------------------------------|
--13--0--0--0-----0-----13--0--0-----0--|


     PM PM                                 
  |--3--|   |--3--|   |---3--|  |---3--|   
  E  E  E   E  E  E   E  E   E  E   E  E   
------------------------------------------|
------------------------------------------|
------------------------------------------|
------------------------------------------|
------------------------------------------|
-----0--0--13--0--0--13--0--13--0--13--0--|


   |--3--|  |--3--|  |---3--|  |--3--|   
   E  E  E  E  E  E  E   E  E  E  E  E   
----------------------------------------|
----------------------------------------|
----------------------------------------|
----------------------------------------|
----------------------------------------|
--13--0--0--0-----0-----13--0--0-----0--|


     PM PM                                 
  |--3--|   |--3--|   |---3--|  |---3--|   
  E  E  E   E  E  E   E  E   E  E   E  E   
------------------------------------------|
------------------------------------------|
------------------------------------------|
------------------------------------------|
------------------------------------------|
-----0--0--13--0--0--13--0--13--0--13--0--|


   |--3--|  |--3--|  |---3--|  |--3--|   
   E  E  E  E  E  E  E   E  E  E  E  E   
----------------------------------------|
----------------------------------------|
----------------------------------------|
----------------------------------------|
----------------------------------------|
--13--0--0--0-----0-----13--0--0-----0--|


     PM PM                                 
  |--3--|   |--3--|   |---3--|  |---3--|   
  E  E  E   E  E  E   E  E   E  E   E  E   
------------------------------------------|
------------------------------------------|
------------------------------------------|
------------------------------------------|
------------------------------------------|
-----0--0--13--0--0--13--0--13--0--13--0--|


   |--3--|  |--3--|  |---3--|  |--3--|   
   E  E  E  E  E  E  E   E  E  E  E  E   
----------------------------------------|
----------------------------------------|
----------------------------------------|
----------------------------------------|
----------------------------------------|
--13--0--0--0-----0-----13--0--0-----0--|


     PM PM                                                                      
  |--3--|   |--3--|   |---3--|  |---3--|     |--3-|  |--3--|  |--3-|  |--3--|   
  E  E  E   E  E  E   E  E   E  E   E  E     Q    E  E  E  E  Q    E  E  E  E   
------------------------------------------|------------------------------------|
------------------------------------------|------------------------------------|
------------------------------------------|--7----7--7--7--7--7----7--7--7--7--|
------------------------------------------|--x----x--x--x--x--x----x--x--x--x--|
------------------------------------------|--5----5--5--5--5--5----5--5--5--5--|
-----0--0--13--0--0--13--0--13--0--13--0--|------------------------------------|


                                                 PM PM            PM PM  
  |--3-|  |--3--|  |--3-|  |--3--|     |------3-----|  |------3------|   
  Q    E  E  E  E  Q    E  E  E  E     Q    Q    E  E  E  E  Q    E  E   
------------------------------------|-----------------------------------|
------------------------------------|-----------------------------------|
--7----7--7--7--7--7----7--7--7--7--|-----------------------------------|
--x----x--x--x--x--x----x--x--x--x--|-----------------------------------|
--5----5--5--5--5--5----5--5--5--5--|-----------------------------------|
------------------------------------|--0----0----0--0--1--0--0----0--0--|


             PM PM            PM PM                                       
  |------3------|  |------3------|     |--3-|  |--3--|  |--3-|  |--3--|   
  E  E  Q    E  E  E  E  Q    E  E     Q    E  E  E  E  Q    E  E  E  E   
------------------------------------|------------------------------------|
------------------------------------|------------------------------------|
------------------------------------|--7----7--7--7--7--7----7--7--7--7--|
------------------------------------|--x----x--x--x--x--x----x--x--x--x--|
------------------------------------|--5----5--5--5--5--5----5--5--5--5--|
--1--0--0----0--0--1--0--0----0--0--|------------------------------------|


                                                 PM PM            PM PM  
  |--3-|  |--3--|  |--3-|  |--3--|     |------3-----|  |------3------|   
  Q    E  E  E  E  Q    E  E  E  E     Q    Q    E  E  E  E  Q    E  E   
------------------------------------|-----------------------------------|
------------------------------------|-----------------------------------|
--7----7--7--7--7--7----7--7--7--7--|-----------------------------------|
--x----x--x--x--x--x----x--x--x--x--|-----------------------------------|
--5----5--5--5--5--5----5--5--5--5--|-----------------------------------|
------------------------------------|--0----0----0--0--1--0--0----0--0--|


             PM PM            PM PM                                       
  |------3------|  |------3------|     |--3-|  |--3--|  |--3-|  |--3--|   
  E  E  Q    E  E  E  E  Q    E  E     Q    E  E  E  E  Q    E  E  E  E   
------------------------------------|------------------------------------|
------------------------------------|------------------------------------|
------------------------------------|--7----7--7--7--7--7----7--7--7--7--|
------------------------------------|--x----x--x--x--x--x----x--x--x--x--|
------------------------------------|--5----5--5--5--5--5----5--5--5--5--|
--1--0--0----0--0--1--0--0----0--0--|------------------------------------|


  |--3-|  |--3--|  |--3-|  |--3--|      |---3--|  |---3--|  |--3-|   |---3--|   
  Q    E  E  E  E  Q    E  E  E  E      E  E   E  E   E  E  Q    E   E  E   E   
------------------------------------|------------------------------------------|
------------------------------------|------------------------------------------|
--7----7--7--7--7--7----7--7--7--7--|------------------------------------------|
--x----x--x--x--x--x----x--x--x--x--|------------------------------------------|
--5----5--5--5--5--5----5--5--5--5--|-----------------------8----L-------------|
------------------------------------|--12--0--11--0--12--0----------12--0--11--|


                      PM  PM  PM             
  |---3--|   |--3-|   |---3---|   |---3--|   
  E   E  E   Q    E   E   E   E   E   E  E   
--------------------------------------------|
--------------------------------------------|
--------------------------------------------|
--------------------------------------------|
------------10----L--12--12--12--13--12-----|
--0--12--0-------------------------------0--|


   |---3--|  |---3--|   |--3-|   |---3--|   
   E  E   E  E   E  E   Q    E   E  E   E   
-------------------------------------------|
-------------------------------------------|
-------------------------------------------|
-------------------------------------------|
-----------------------12----L-------------|
--15--0--14--0--15--0-----------15--0--14--|


                      PM  PM  PM                                    
  |---3--|   |--3-|   |---3---|   |-3-|                             
  E   E  E   Q    E   E   E   E   E   Q        Q    Q    Q    Q     
--------------------------------------------|----------------------|
--------------------------------------------|----------------------|
--------------------------------------------|-------7----7---------|
--------------------------------------------|--7--------------7----|
------------13----L--15--15--15--17---L\----|----------------------|
--0--15--0----------------------------------|----------------------|


  Q    Q    Q    Q       Q    Q    Q    Q       Q    Q    Q    Q     
----------------------|----------------------|----------------------|
----------------------|----------------------|----------------------|
-------7----7---------|-------7--------------|------------7---------|
--7--------------7----|--8---------7----7----|--7----7---------5----|
----------------------|----------------------|----------------------|
----------------------|----------------------|----------------------|


  Q    Q    Q    Q       Q    Q    Q    Q       Q    Q    Q    Q     
----------------------|----------------------|----------------------|
----------------------|----------------------|----------------------|
------------7---------|------------7---------|-------7--------------|
--7----7---------7----|--7----7---------7----|--8---------7----7----|
----------------------|----------------------|----------------------|
----------------------|----------------------|----------------------|


  W                    W                   H         H          
-------------------|--------------------|----------------------|
-------------------|--------------------|----------------------|
--7----------------|--14----------------|--L--------14b--------|
--5----------------|--------------------|----------------------|
-------------------|--------------------|----------------------|
-------------------|--------------------|----------------------|


   W                    W                    W                 
--------------------|--------------------|--------------------|
--------------------|--------------------|--------------------|
--14----------------|--12----------------|--14----------------|
--------------------|--------------------|--------------------|
--------------------|--------------------|--------------------|
--------------------|--------------------|--------------------|


   H         H            H         H            H         H         
----------------------|------------12b--------|--L--------12--------|
----------------------|-----------------------|---------------------|
----------------------|--12-------------------|---------------------|
--14--------15--------|-----------------------|---------------------|
----------------------|-----------------------|---------------------|
----------------------|-----------------------|---------------------|


   W                    H         H             W                 
--17----------------|---L--------17b--------|--17----------------|
--------------------|-----------------------|--------------------|
--------------------|-----------------------|--------------------|
--------------------|-----------------------|--------------------|
--------------------|-----------------------|--------------------|
--------------------|-----------------------|--------------------|


   W                    W                    W                 
--15----------------|--------------------|--------------------|
--------------------|--14----------------|--15----------------|
--------------------|--------------------|--------------------|
--------------------|--------------------|--------------------|
--------------------|--------------------|--------------------|
--------------------|--------------------|--------------------|


   W                    H         H            W                 
--------------------|----------------------|--------------------|
--17----------------|--18--------17--------|--15----------------|
--------------------|----------------------|--------------------|
--------------------|----------------------|--------------------|
--------------------|----------------------|--------------------|
--------------------|----------------------|--------------------|


   H         H            W                    W                 
----------------------|--------------------|--------------------|
--17--------18--------|--17----------------|--15----------------|
----------------------|--------------------|--------------------|
----------------------|--------------------|--------------------|
----------------------|--------------------|--------------------|
----------------------|--------------------|--------------------|


   W                    W                    W                 
--------------------|--------------------|--------------------|
--14----------------|--15----------------|--17----------------|
--------------------|--------------------|--------------------|
--------------------|--------------------|--------------------|
--------------------|--------------------|--------------------|
--------------------|--------------------|--------------------|


   H         H            W                   W                 
----------------------|--------------------|-------------------|
--18--------17--------|--15----------------|--L----------------|
----------------------|--------------------|-------------------|
----------------------|--------------------|-------------------|
----------------------|--------------------|-------------------|
----------------------|--------------------|-------------------|


  W                   W                 
-------------------|-------------------|
--L----------------|--L----------------|
-------------------|-------------------|
-------------------|-------------------|
-------------------|-------------------|
-------------------|-------------------|


   |---3--|  |---3--|  |--3-|   |---3--|   
   E  E   E  E   E  E  Q    E   E  E   E   
------------------------------------------|
------------------------------------------|
------------------------------------------|
------------------------------------------|
-----------------------8----L-------------|
--12--0--11--0--12--0----------12--0--11--|


                      PM  PM  PM             
  |---3--|   |--3-|   |---3---|   |---3--|   
  E   E  E   Q    E   E   E   E   E   E  E   
--------------------------------------------|
--------------------------------------------|
--------------------------------------------|
--------------------------------------------|
------------10----L--12--12--12--13--12-----|
--0--12--0-------------------------------0--|


   |---3--|  |---3--|   |--3-|   |---3--|   
   E  E   E  E   E  E   Q    E   E  E   E   
-------------------------------------------|
-------------------------------------------|
-------------------------------------------|
-------------------------------------------|
-----------------------12----L-------------|
--15--0--14--0--15--0-----------15--0--14--|


                      PM  PM  PM             
  |---3--|   |--3-|   |---3---|   |-3-|      
  E   E  E   Q    E   E   E   E   E   Q      
--------------------------------------------|
--------------------------------------------|
--------------------------------------------|
--------------------------------------------|
------------13----L--15--15--15--17---L\----|
--0--15--0----------------------------------|


   |--3--|  |--3--|  |---3--|  |--3--|   
   E  E  E  E  E  E  E   E  E  E  E  E   
----------------------------------------|
----------------------------------------|
----------------------------------------|
----------------------------------------|
----------------------------------------|
--13--0--0--0-----0-----13--0--0-----0--|


     PM PM                                 
  |--3--|   |--3--|   |---3--|  |---3--|   
  E  E  E   E  E  E   E  E   E  E   E  E   
------------------------------------------|
------------------------------------------|
------------------------------------------|
------------------------------------------|
------------------------------------------|
-----0--0--13--0--0--13--0--13--0--13--0--|


   |--3--|  |--3--|  |---3--|  |--3--|   
   E  E  E  E  E  E  E   E  E  E  E  E   
----------------------------------------|
----------------------------------------|
----------------------------------------|
----------------------------------------|
----------------------------------------|
--13--0--0--0-----0-----13--0--0-----0--|


     PM PM                                 
  |--3--|   |--3--|   |---3--|  |---3--|   
  E  E  E   E  E  E   E  E   E  E   E  E   
------------------------------------------|
------------------------------------------|
------------------------------------------|
------------------------------------------|
------------------------------------------|
-----0--0--13--0--0--13--0--13--0--13--0--|


   |--3--|  |--3--|  |---3--|  |--3--|   
   E  E  E  E  E  E  E   E  E  E  E  E   
----------------------------------------|
----------------------------------------|
----------------------------------------|
----------------------------------------|
----------------------------------------|
--13--0--0--0-----0-----13--0--0-----0--|


     PM PM                                 
  |--3--|   |--3--|   |---3--|  |---3--|   
  E  E  E   E  E  E   E  E   E  E   E  E   
------------------------------------------|
------------------------------------------|
------------------------------------------|
------------------------------------------|
------------------------------------------|
-----0--0--13--0--0--13--0--13--0--13--0--|


   |--3--|  |--3--|  |---3--|  |--3--|   
   E  E  E  E  E  E  E   E  E  E  E  E   
----------------------------------------|
----------------------------------------|
----------------------------------------|
----------------------------------------|
----------------------------------------|
--13--0--0--0-----0-----13--0--0-----0--|


     PM PM                                                                      
  |--3--|   |--3--|   |---3--|  |---3--|     |--3-|  |--3--|  |--3-|  |--3--|   
  E  E  E   E  E  E   E  E   E  E   E  E     Q    E  E  E  E  Q    E  E  E  E   
------------------------------------------|------------------------------------|
------------------------------------------|------------------------------------|
------------------------------------------|--7----7--7--7--7--7----7--7--7--7--|
------------------------------------------|--x----x--x--x--x--x----x--x--x--x--|
------------------------------------------|--5----5--5--5--5--5----5--5--5--5--|
-----0--0--13--0--0--13--0--13--0--13--0--|------------------------------------|


                                                 PM PM            PM PM  
  |--3-|  |--3--|  |--3-|  |--3--|     |------3-----|  |------3------|   
  Q    E  E  E  E  Q    E  E  E  E     Q    Q    E  E  E  E  Q    E  E   
------------------------------------|-----------------------------------|
------------------------------------|-----------------------------------|
--7----7--7--7--7--7----7--7--7--7--|-----------------------------------|
--x----x--x--x--x--x----x--x--x--x--|-----------------------------------|
--5----5--5--5--5--5----5--5--5--5--|-----------------------------------|
------------------------------------|--0----0----0--0--1--0--0----0--0--|


             PM PM            PM PM                                       
  |------3------|  |------3------|     |--3-|  |--3--|  |--3-|  |--3--|   
  E  E  Q    E  E  E  E  Q    E  E     Q    E  E  E  E  Q    E  E  E  E   
------------------------------------|------------------------------------|
------------------------------------|------------------------------------|
------------------------------------|--7----7--7--7--7--7----7--7--7--7--|
------------------------------------|--x----x--x--x--x--x----x--x--x--x--|
------------------------------------|--5----5--5--5--5--5----5--5--5--5--|
--1--0--0----0--0--1--0--0----0--0--|------------------------------------|


                                                 PM PM            PM PM  
  |--3-|  |--3--|  |--3-|  |--3--|     |------3-----|  |------3------|   
  Q    E  E  E  E  Q    E  E  E  E     Q    Q    E  E  E  E  Q    E  E   
------------------------------------|-----------------------------------|
------------------------------------|-----------------------------------|
--7----7--7--7--7--7----7--7--7--7--|-----------------------------------|
--x----x--x--x--x--x----x--x--x--x--|-----------------------------------|
--5----5--5--5--5--5----5--5--5--5--|-----------------------------------|
------------------------------------|--0----0----0--0--1--0--0----0--0--|


             PM PM            PM PM                                       
  |------3------|  |------3------|     |--3-|  |--3--|  |--3-|  |--3--|   
  E  E  Q    E  E  E  E  Q    E  E     Q    E  E  E  E  Q    E  E  E  E   
------------------------------------|------------------------------------|
------------------------------------|------------------------------------|
------------------------------------|--7----7--7--7--7--7----7--7--7--7--|
------------------------------------|--x----x--x--x--x--x----x--x--x--x--|
------------------------------------|--5----5--5--5--5--5----5--5--5--5--|
--1--0--0----0--0--1--0--0----0--0--|------------------------------------|


  |--3-|  |--3--|  |--3-|  |--3--|     |--3-|  |--3--|  |--3-|  |--3--|   
  Q    E  E  E  E  Q    E  E  E  E     Q    E  E  E  E  Q    E  E  E  E   
------------------------------------|------------------------------------|
------------------------------------|------------------------------------|
--7----7--7--7--7--7----7--7--7--7--|--7----7--7--7--7--7----7--7--7--7--|
--x----x--x--x--x--x----x--x--x--x--|--x----x--x--x--x--x----x--x--x--x--|
--5----5--5--5--5--5----5--5--5--5--|--5----5--5--5--5--5----5--5--5--5--|
------------------------------------|------------------------------------|


  |--3-|  |--3--|  |--3-|  |--3--|     |--3--|  |--3--|  |--3--|  |--3--|   
  Q    E  E  E  E  Q    E  E  E  E     E  E  E  E  E  E  E  E  E  E  E  E   
------------------------------------|--------------------------------------|
------------------------------------|--------------------------------------|
--7----7--7--7--7--7----7--7--7--7--|--------------------------------------|
--x----x--x--x--x--x----x--x--x--x--|--------------------------------------|
--5----5--5--5--5--5----5--5--5--5--|--------------------------------------|
------------------------------------|--1--0--0--0-----0-----1--0--0-----0--|


     PM PM                                                                    
  |--3--|  |--3--|  |--3--|  |--3--|     |--3--|  |--3--|  |--3--|  |--3--|   
  E  E  E  E  E  E  E  E  E  E  E  E     E  E  E  E  E  E  E  E  E  E  E  E   
--------------------------------------|--------------------------------------|
--------------------------------------|--------------------------------------|
--------------------------------------|--------------------------------------|
--------------------------------------|--------------------------------------|
--------------------------------------|--------------------------------------|
-----0--0--1--0--0--1--0--1--0--1--0--|--1--0--0--0-----0-----1--0--0-----0--|


     PM PM                                                                    
  |--3--|  |--3--|  |--3--|  |--3--|     |--3--|  |--3--|  |--3--|  |--3--|   
  E  E  E  E  E  E  E  E  E  E  E  E     E  E  E  E  E  E  E  E  E  E  E  E   
--------------------------------------|--------------------------------------|
--------------------------------------|--------------------------------------|
--------------------------------------|--------------------------------------|
--------------------------------------|--------------------------------------|
--------------------------------------|--------------------------------------|
-----0--0--1--0--0--1--0--1--0--1--0--|--1--0--0--0-----0-----1--0--0-----0--|


     PM PM                                                                    
  |--3--|  |--3--|  |--3--|  |--3--|     |--3--|  |--3--|  |--3--|  |--3--|   
  E  E  E  E  E  E  E  E  E  E  E  E     E  E  E  E  E  E  E  E  E  E  E  E   
--------------------------------------|--------------------------------------|
--------------------------------------|--------------------------------------|
--------------------------------------|--------------------------------------|
--------------------------------------|--------------------------------------|
--------------------------------------|--------------------------------------|
-----0--0--1--0--0--1--0--1--0--1--0--|--1--0--0--0-----0-----1--0--0-----0--|


     PM PM                               PM PM PM PM    PM    PM PM PM    PM  
  |--3--|  |--3--|  |--3--|  |--3--|     |--3--|  |--3--|  |--3--|  |--3--|   
  E  E  E  E  E  E  E  E  E  E  E  E     E  E  E  E  E  E  E  E  E  E  E  E   
--------------------------------------|--------------------------------------|
--------------------------------------|--------------------------------------|
--------------------------------------|--------------------------------------|
--------------------------------------|--0--0--0--0-----0-----0--0--0-----0--|
--------------------------------------|--0--0--0--0-----0-----0--0--0-----0--|
-----0--0--1--0--0--1--0--1--0--1--0--|--0--0--0--0-----0-----0--0--0-----0--|


     PM PM                               PM PM PM PM    PM    PM PM PM    PM  
  |--3--|  |--3--|  |--3--|  |--3--|     |--3--|  |--3--|  |--3--|  |--3--|   
  E  E  E  E  E  E  E  E  E  E  E  E     E  E  E  E  E  E  E  E  E  E  E  E   
--------------------------------------|--------------------------------------|
--------------------------------------|--------------------------------------|
--------------------------------------|--------------------------------------|
--------------------------------------|--0--0--0--0-----0-----0--0--0-----0--|
--------------------------------------|--0--0--0--0-----0-----0--0--0-----0--|
-----0--0--1--0--0--1--0--1--0--1--0--|--0--0--0--0-----0-----0--0--0-----0--|


     PM PM                               PM PM PM PM    PM    PM PM PM    PM  
  |--3--|  |--3--|  |--3--|  |--3--|     |--3--|  |--3--|  |--3--|  |--3--|   
  E  E  E  E  E  E  E  E  E  E  E  E     E  E  E  E  E  E  E  E  E  E  E  E   
--------------------------------------|--------------------------------------|
--------------------------------------|--------------------------------------|
--------------------------------------|--------------------------------------|
--------------------------------------|--0--0--0--0-----0-----0--0--0-----0--|
--------------------------------------|--0--0--0--0-----0-----0--0--0-----0--|
-----0--0--1--0--0--1--0--1--0--1--0--|--0--0--0--0-----0-----0--0--0-----0--|


     PM PM                               PM PM PM PM    PM    PM PM PM    PM  
  |--3--|  |--3--|  |--3--|  |--3--|     |--3--|  |--3--|  |--3--|  |--3--|   
  E  E  E  E  E  E  E  E  E  E  E  E     E  E  E  E  E  E  E  E  E  E  E  E   
--------------------------------------|--------------------------------------|
--------------------------------------|--------------------------------------|
--------------------------------------|--------------------------------------|
--------------------------------------|--0--0--0--0-----0-----0--0--0-----0--|
--------------------------------------|--0--0--0--0-----0-----0--0--0-----0--|
-----0--0--1--0--0--1--0--1--0--1--0--|--0--0--0--0-----0-----0--0--0-----0--|


     PM PM                                    
  |--3--|  |--3--|  |--3--|  |--3--|     ---  
  E  E  E  E  E  E  E  E  E  E  E  E          
--------------------------------------|-----||
--------------------------------------|-----||
--------------------------------------|-----||
--------------------------------------|-----||
--------------------------------------|-----||
-----0--0--1--0--0--1--0--1--0--1--0--|-----||


Duration Legend
---------------
W - whole
H - half
Q - quarter
E - 8th
S - 16th
T - 32nd
X - 64th
. - note dotted
|-n-|  - n-tuplets


Tablature Legend
----------------
L - tied note
x - dead note
g - grace note
(n) - ghost note
> - accentuded note
NH - natural harmonic
AH - artificial harmonic
TH - tapped harmonic
SH - semi harmonic
PH - pitch harmonic
h - hammer on
p - pull off
b - bend
br - bendRelease
pb - preBend
pbr - preBendRelease
brb - bendReleaseBend
\n/ - tremolo bar dip
\n - tremolo bar dive
-/n - tremolo bar Release up
/n\ - tremolo bar inverted dip
/n - tremolo bar return
-\n - tremolo bar Release down
S - shift slide
s - legato slide
/ -  slide into from below or out of upwards
\ -  slide into from above or out of downwards
~ - vibrato
W - wide vibrato
tr - trill
TP - tremolo picking
T - tapping
S - slap
P - pop
< - fade in
^ - brush up
v - brush down


That is all! I hope this helped, and be sure to check out my cover if you are
having problems with the tab. Thanks, oh and one last thing... ROCK OUT!!!!
Добавлено: 18.11.2013
Другие материалы по этой песне:
  • Аккорды и текст

Страница создана 17.08.2013
http://primanota.ru/sevendust/faithless-chords.htm
Привет, Гость.
Предлагаем пройти революционный курс по гитаре.
Подарок от PrimaNota.Ru, забирай!