PrimaNota.ru - самый крупный в мире бесплатный архив песенных текстов, аккордов, табулатур и нот


Sevendust - The End Is Coming - текст песни, таба, видео

Регистрация Запомнить меня
Войти через:  Facebook Google Twitter Vk Yandex Mail.ru

Sevendust - The End Is Coming - текст песни, таба, видео

Печатать
Просмотров: 66
Уроки эстрадного вокала в Санкт-Петербурге
Sevendust: The End Is Coming

Transcribed by: mysticguitar77

YouTube Channel: https://www.youtube.com/user/MysticGuitar77

Date last modified: March 4, 2015

Tuning: Modified Drop B (B,F#,B,E,F#,B)

Riff 1
 B|-----------------------------------------------------|
F#|-----------------------------------------------------|
 E|---7-7-7-7----5-5---8-8-8---7-7-7-7--7---------------|
 B|---x-x-x-x----x-x---x-x-x---x-x-x-x--x---------------| x7
F#|---5-5-5-5----3-3---6-6-6---5-5-5-5--5---------------|
 B|-0----------0-----0-------0------------0-3*-3*-3*-3*-|

 B|----------------------------------0-0-|
F#|----------------------------------0-0-|
 E|---7-7-7-7----5-5---8-8-8---------7-7-|
 B|---x-x-x-x----x-x---x-x-x-8-8-8-5-7-7-|
F#|---5-5-5-5----3-3---6-6-6-8-8-8-5-5-5-|
 B|-0----------0-----0-------8-8-8-5-5-5-|

Riff 2 (clean, let chords ring out)   "I see the last parade unfold..."
 B|-0------0------0------0------0------0------0------0-|
F#|-0------0------0------0------0------0------0------0-|
 E|-7------7------7------5------7------7------7------7-|
 B|-7------8------5------3------7------8------5------4-|
F#|----------------------------------------------------|
 B|----------------------------------------------------|

 B|-0----0-----0-0---------0---------0---------|
F#|-0------0-----0----0----0----0----0----0----|
 E|-7------------7---------7---------5---------|
 B|-7-7------7---8-8-----8-5-5-----5-3-3-----3-|
F#|--------------------------------------------|
 B|--------------------------------------------|

 B|-0----0-----0-0---------0---------0-|
F#|-0------0-----0----0----0----0----0-|
 E|-7------------7---------7---------7-|
 B|-7-7------7---8-8-----8-5-5-----5-4-|
F#|----------------------------------0-|
 B|----------------------------------0-|

Fill 1
 B|--------------------------|
F#|--------------------------|
 E|---7-7-7-7----5-5---8-8-8-|
 B|---x-x-x-x----x-x---x-x-x-|
F#|---5-5-5-5----3-3---6-6-6-|
 B|-0----------0-----0-------|

Riff 3   "The end is coming..."
 B|-------------------------------------------------|
F#|-------------------------------------------------|
 E|---7-7-7-7----5-5---8-8-8---7-7-7-7--7-----------|
 B|---x-x-x-x----x-x---x-x-x---x-x-x-x--x-----------|
F#|---5-5-5-5----3-3---6-6-6---5-5-5-5--5-----------|
 B|-0----------0-----0-------0------------0-3-3-3-3-|

 B|-------------------------------------------|
F#|-------------------------------------------|
 E|---7-7-7-7----5-5---8-8-8------------------|
 B|---x-x-x-x----x-x---x-x-x----8--------5--7-|
F#|---5-5-5-5----3-3---6-6-6------------------|
 B|-0----------0-----0-------8-----8--5-------|

 B|-------------------------------------------------|
F#|-------------------------------------------------|
 E|---7-7-7-7----5-5---8-8-8---7-7-7-7--7-----------|
 B|---x-x-x-x----x-x---x-x-x---x-x-x-x--x-----------|
F#|---5-5-5-5----3-3---6-6-6---5-5-5-5--5-----------|
 B|-0----------0-----0-------0------------0-3-3-3-3-|

 B|------------------------------------------------0-0-0-|
F#|------------------------------------------------0-0-0-|
 E|---7-7-7-7----5-5---8-8-8-----------------------7-7-7-|
 B|---x-x-x-x----x-x---x-x-x-8-8-8-8h10-8-10-5-5-5-7-7-7-|
F#|---5-5-5-5----3-3---6-6-6-8-8-8-8h10-8-10-5-5-5-5-5-5-|
 B|-0----------0-----0-------8-8-8-8h10-8-10-5-5-5-5-5-5-|

Play Riff 2 x1   "I see the cruel charade as bright as the sun..."
Play Fill 1 x1
Play Riff 3 x1   "The end is coming..."

Riff 4   "Divine security..."
 B|-----------------------------|
F#|-----------------------------|
 E|-----------------------------|
 B|-0--0--0-------0--0--0-------|
F#|-0--0--0-------0--0--0-------|
 B|-0--0--0-------0--0--0-------|

Play Riff 4 x2   "Divine security..."

Riff 5   "So run, keep running..."
 B|-----------------------------------------------------------------------|
F#|-----------------------------------------------------------------------|
 E|-----------------------------------------------------------------------|
 B|-8-8-8-8--8-8-8-8-8----8-8-8-8-8-8\-5-5-5-5--5-5-5-5-5----5-5-5-5-5-5\-|
F#|-8-8-8-8--8-8-8-8-8----8-8-8-8-8-8\-5-5-5-5--5-5-5-5-5----5-5-5-5-5-5\-|
 B|-8-8-8-8--8-8-8-8-8----8-8-8-8-8-8\-5-5-5-5--5-5-5-5-5----5-5-5-5-5-5\-|
    * * * *  * * * *      * * * * *    * * * *  * * * *      * * * * *

 B|----------------------------------------------------------------------|
F#|----------------------------------------------------------------------|
 E|----------------------------------------------------------------------|
 B|-0-0-0-0--0-0-0-0-0----0-0-0-0-0-0--3-3-3-3--3-3-3-3-3----3-3-3-3-3-3-|
F#|-0-0-0-0--0-0-0-0-0----0-0-0-0-0-0--3-3-3-3--3-3-3-3-3----3-3-3-3-3-3-|
 B|-0-0-0-0--0-0-0-0-0----0-0-0-0-0-0--3-3-3-3--3-3-3-3-3----3-3-3-3-3-3-|
    * * * *  * * * *      * * * * *    * * * *  * * * *      * * * * *

Riff 6 (solo rhythm, just the chords)
 B|------------0----------------------------------------0------------------------------------|
F#|------------0----------------------------------------0------------------------------------|
 E|-10---------7---------2----------5---------10--------7------------------------------------|
 B|-8----------7---------0----------3---------8---------7----------0---0-1-0---0-1-0---0-1-0-|
F#|-8----------5---------0----------3---------8---------5----------0---0-1-0---0-1-0---0-1-0-|
 B|-8----------5---------0----------3---------8---------5----------0---0-1-0---0-1-0---0-1-0-|

Solo
 B|-----------------------------------------0--------------0-----0---|
F#|--------12---------------------------------0--------------0-----0-|
 E|-/10-12-------------12--------------------------------------------|
 B|------------/12-10-----10-7-7--5-/-7-7b8-----7--5-5/7-7-----7-----|
F#|------------------------------------------------------------------|
 B|------------------------------------------------------------------|

 B|-15b17--15p12----12------12p10----10----12----------------12-----------|
F#|--------------15----15b--------12----12----13-12-10-12-13----13-12-10\-|
 E|-----------------------------------------------------------------------|
 B|-----------------------------------------------------------------------|
F#|-----------------------------------------------------------------------|
 B|-----------------------------------------------------------------------|

 B|-----------------------------------------|
F#|-/12--8-/-10--3-/-5--/12--5-/-15--8-/-17-|
 E|-----------------------------------------|
 B|-----------------------------------------|
F#|-----------------------------------------|
 B|-----------------------------------------|

 B|-----10-----10----------12------12-------------7h8h10p8p7---------------7h8h10t12p10p8p7--------|
F#|-7h8----7h8----7h8-8h10----8h10----8h10-7h8h10------------10p8p7-7h8h10------------------10p8p7-|
 E|------------------------------------------------------------------------------------------------|
 B|------------------------------------------------------------------------------------------------|
F#|------------------------------------------------------------------------------------------------|
 B|------------------------------------------------------------------------------------------------|

 B|-15b17--15-17-17b19r17-17b19--15-----------------17b19-15-|
F#|------------------------------18b20--17----15-17----------|
 E|----------------------------------------14----------------|
 B|----------------------------------------------------------|
F#|----------------------------------------------------------|
 B|----------------------------------------------------------|

 B|-12p10-------/12p10-------/15p12-------/17p15-------/19p15-------17b19~-------|
F#|-------12p10--------12p10--------15p12--------17p15--------19p15--------------|
 E|------------------------------------------------------------------------------|
 B|----------------------------------------------------------------------------\-|
F#|----------------------------------------------------------------------------\-|
 B|----------------------------------------------------------------------------\-|

Play Riff 3 x1   "The end is coming..."
Play Riff 1 x4

Ending
 B|-------------------------------------------------------------------|
F#|-------------------------------------------------------------------|
 E|---------------------------------------------------------10-10-10\-|
 B|---------------------------------------------------------x--x--x---|
F#|-000-0-0-000-0-0-000-0-0-000-0-0-000-0-0-000-0-0-000-0-0-8--8--8\--|
 B|-000-0-0-000-0-0-000-0-0-000-0-0-000-0-0-000-0-0-000-0-0-----------|
    *** * * *** * * *** * * *** * * *** * * *** * * *** * *

Enjoy!!





Добавлено: 18.11.2015
Другие материалы по этой песне:
  • Аккорды и текст

Страница создана 29.07.2014
http://primanota.ru/sevendust/end-is-coming-chords.htm
Привет, Гость.
Предлагаем пройти революционный курс по гитаре.
Подарок от PrimaNota.Ru, забирай!