PrimaNota.ru - самый крупный в мире бесплатный архив песенных текстов, аккордов, табулатур и нот


Sevendust - Driven - текст песни, таба, видео

Регистрация Запомнить меня
Войти через:  Facebook Google Twitter Vk Yandex Mail.ru

Sevendust - Driven - текст песни, таба, видео

Печатать
Просмотров: 123
Уроки эстрадного вокала в Санкт-Петербурге
Tuning: Drop B

Song: Driven
Artist: Sevendust
Album: Alpha
Tabbed by: Tyler Marley

/ slide up
\ slide down
. palm mute
x muted note(fret hand)
~ vibrato
h hammer
p pull off

Sorry, I won't specify when to use effects or which ones to use.

Intro: Guitar 1    repeats             Then
C#|---------------------------------|  |--------------------------------|
G#|---------------------------------|  |--------------------------------|
E |---------------------------------|  |--------------------------------|
B |---------------------------------|  |--------------------------------|
F#|-3-2--------------3-2------------|  |-3-2--------------3-2-----3-5-2-|
B |-----3~-3-3-3-3-3-----4-3-3-3-3--|  |-----3~-3-3-3-3-3-----4-3-------|
           . . . . .         . . .              . . . . .      

Verse: Guitars 1 and 2
C#|-------------------------------|
G#|-------------------------------|
E |-------------------------------|
B |-------------------------------|Repeats
F#|-3-2--------------3-2----3-5-2-|
B |-----3~-3-3-3-3-3-----3~-------|
           . . . . .        

C#|-----------------------------|
G#|-----------------------------|
E |-----------------------------|
B |-----------------------------|Repeats
F#|-3-2------------3-2----------|
B |-----3~-3--3--3-----3~-3-3-3-|
           .  .  .        . . .

Chorus: Guitars 1 and 2
C#|-------------------------------------------|
G#|-------------------------------------------|
E |-7-/-9-9-9-9-9-/-13-13-13-13-/-14-14-14-14-|
B |-x-----x-x-x-x------x--x--x--------x--x--x-|
F#|-5-/-7-7-7-7-7-/-11-11-11-11-/-12-12-12-12-|
B |-------------------------------------------|

C#|------------------------------------|
G#|------------------------------------|
E |------------------------------------|
B |-10-10-10-10-10-10-10-7-7-7-7-7-7-7-|
F#|-10-10-10-10-10-10-10-7-7-7-7-7-7-7-|
B |-10-10-10-10-10-10-10-7-7-7-7-7-7-7-|

C#|------------------------------------------------|
G#|------------------------------------------------|
E |-7-/-9-9-9/10\9-9-/-13-13-13-13-\-7-7-7-/-13-13-|
B |-x-----x-x------x------x--x---x-----x-x------x--|
F#|-5-/-7-7-7/10\7-7-/-11-11-11-11-\-5-5-5-/-11-11-|
B |------------------------------------------------|

C#|------------------------------------|
G#|------------------------------------|
E |------------------------------------|
B |-10-10-10-10-10-10-10-7-7-7-7-7-7-7-|
F#|-10-10-10-10-10-10-10-7-7-7-7-7-7-7-|
B |-10-10-10-10-10-10-10-7-7-7-7-7-7-7-|

Interlude: Guitar 1      Then...Guitars 1 an 2
C#|---------------------|-----------------------------------------------|
G#|---------------------|-----------------------------------------------|
E |---------------------|-----------------------------------------------|
B |-2-2-3-2-------------|-2-----------------3-----------2-2-3-2---------|
F#|---------3-2---------|-2--2-2--2-2--2-2--3-2-2--2-2----------3-2-----|
B |-------------2-3-2-2-|-2--2-2--2-2--2-2--3-2-2--2-2--------------2-3-|
     (repeats)               . .  . .  . .    . .  . .         (repeats)

Solo: Guitar 1
C#|-----------------------------|
G#|-----------------------------|
E |-9-/-10-\-7-/-9--9----10-9-9-|
B |-----------------------------|repeats
F#|-----------------------------|
B |-----------------------------|

Bridge: Guitar 1
C#|--------------------------|------------------------|
G#|--------------------------|------------------------|
E |-7-/-9-9-9-9-9-9-9-9-9-9\-|-7-/-9-9-9-9-9-9-9-9-9\-|
B |-x-----x-x-x-x-x-x-x-x-x--|-x-----x-x-x-x-x-x-x-x--|
F#|-5-/-7-7-7-7-7-7-7-7-7-7\-|-5-/-7-7-7-7-7-7-7-7-7\-|
B |--------------------------|------------------------|

C#|------------------------------------|-----------------------------------|
G#|------------------------------------|-----------------------------------|
E |-7-/-13-13-13-13-13-13-13-13-13-13\-|-7-/-14-14-14-14-14-14-14-14-14-14-|
B |-x------x--x--x--x--x--x--x--x--x---|-x------x--x--x--x--x--x--x--x--x--|
F#|-5-/-11-11-11-11-11-11-11-11-11-11\-|-5-/-12-12-12-12-12-12-12-12-12-12-|
B |------------------------------------|-----------------------------------|

Bridge: Guitar 2                    Then...
C#|---------------------|           C#|---------|
G#|---------------------|           G#|---------|
E |---------------------|           E |---------|
B |---------------------|repeats    B |---------|
F#|-2-2--2-2--2-2--2-2--|           F#|-0-2-2-2-|
B |-2-2--2-2--2-2--2-2--|           B |-0-2-2-2-|
    . .  . .  . .  . .                    . . .

Play the riff that goes with the verse then...

Ending
C#|-----|
G#|-----|
E |-----|
B |-----|
F#|-2-2-|
B |-2-2-|

Please rate.  Thank you!





Добавлено: 07.12.2013
Другие материалы по этой песне:
  • Аккорды и текст

Страница создана 04.07.2012
http://primanota.ru/sevendust/driven-chords.htm
Привет, Гость.
Предлагаем пройти революционный курс по гитаре.
Подарок от PrimaNota.Ru, забирай!