PrimaNota.ru - самый крупный в мире бесплатный архив песенных текстов, аккордов, табулатур и нот


Sevendust - Confessions Without Faith - текст песни, таба, видео

Регистрация Запомнить меня
Войти через:  Facebook Google Twitter Vk Yandex Mail.ru

Sevendust - Confessions Without Faith - текст песни, таба, видео

Печатать
Просмотров: 120
Уроки эстрадного вокала в Санкт-Петербурге
Sevendust: Confessions (Without Faith)

Transcribed by: mysticguitar77

YouTube Username: MysticGuitar77

Date last modified: August 28, 2013

Tuning: Altered Drop B (B,F#,B,E,F#,B)

Riff 1
 B|------------------------0-----------------0-----0-|
F#|--------0--0------------0--------0--0-----0-----0-|
 E|--------4--2---------------------4--2-----0-2-2-2-|
 B|-0-2-0-------0-2-0--4/5---0-2-0-------0-0-0-2-2-2-|
F#|-0-2-0-------0-2-0--------0-2-0-------0-0---0-0-0-|
 B|-0-2-0-------0-2-0--------0-2-0-------0-0---------|
                                         * *   * *

Play Riff 1 x2

Riff 2 (clean, let notes ring)   "I see the magic taken out of our dream..."
 B|-------------------------------------------------|
F#|-----10---10-----10---10-----10---10-----10---10-|
 E|---9----9------9----9------9----9------9----9----|
 B|-------------------------------------------------|
F#|-7-----------7-----------7-----------7-----------|
 B|-------------------------------------------------|

 B|----------------------------------------------|
F#|-----9---9-----9---9-----0-----0-----0------0-|
 E|---9---9-----9---9-----0-----0-----0------0---|
 B|-0---------0----------------------------------|
F#|---------------------3-----5-----9-----10-----|
 B|----------------------------------------------|

Play Riff 2 x2   "Singled out and dazed..."

Riff 3 (clean, let notes ring)   "Everyday's a new confession..."
 B|---------0---------0---------0----------0-|
F#|-----0---------0---------0----------0-----|
 E|---0---0-----0---0-----0---0------0---0---|
 B|------------------------------------------|
F#|-3---------5---------7---------10---------|
 B|------------------------------------------|

 B|---------0---------0---------0----|
F#|-----0---------0---------0--------|
 E|---0---0-----0---0-----0---0------|
 B|-------------------------------0~-|
F#|-3---------5---------3---------0~-|
 B|-------------------------------0~-|

Riff 4   "With our faith, we'll go on, 'til it's over..."
 B|----------------------------------------------------------------|
F#|----------------------------------------------------------------|
 E|-4-4-4-4-4-4-4-4-2-2-2-2-9-9-9-9-12-12----------12-12-----------|
 B|-2-2-2-2-2-2-2-2-0-0-0-0-7-7-7-7-12-12-x-x-x--x-12-12-x-x-x-x-x-|
F#|-2-2-2-2-2-2-2-2-0-0-0-0-7-7-7-7-10-10-x-x-x--x-10-10-x-x-x-x-x-|
 B|-2-2-2-2-2-2-2-2-0-0-0-0-7-7-7-7-10-10-x-x-x--x-10-10-x-x-x-x-x-|

 B|---------------------|
F#|---------------------|
 E|-7-7-7-7-7-7-7/9-9-9-|
 B|-5-5-5-5-5-5-5/7-7-7-|
F#|-5-5-5-5-5-5-5/7-7-7-|
 B|-5-5-5-5-5-5-5/7-7-7-|

Play Riff 4 x2   "Just have faith, we'll go on, we'll get closer..."
Play Riff 1 x1

Fill 1 (clean, let notes ring)
 B|-------------------------------------------0------0------|
F#|-----10---10-----10---10-----10---10-10/12---10\9---9/10-|
 E|---9----9------9----9------9----9------------------------|
 B|---------------------------------------------------------|
F#|-7-----------7-----------7-------------------------------|
 B|---------------------------------------------------------|

Play Riff 2 x2   "I've become so cynical..."
Play Riff 3 x1   "Everyone's a new possession..."
Play Riff 4 x2   "With our faith, we'll go on, 'til it's over..."

Solo
 B|-----------------------------------------------------|
F#|-----/9--10-12--12b14r12-10-15--15\14-14-14-12-12-12-|
 E|-----------------------------------------------------|
 B|-----------------------------------------------------|
F#|-\\\-------------------------------------------------|
 B|-\\\-------------------------------------------------|
                                      *  *  *  *  *  *

 B|----12----12/14-----16b17-16--17p16----14----|
F#|-10----10-------12------------------17----17-|
 E|---------------------------------------------|
 B|---------------------------------------------|
F#|---------------------------------------------|
 B|---------------------------------------------|

 B|-------17--------14-------17/19\17----------14-14~-|
F#|-14-15----14-/17----17-14----------17-14-17--------|
 E|---------------------------------------------------|
 B|---------------------------------------------------|
F#|---------------------------------------------------|
 B|---------------------------------------------------|

Play Riff 4 x4   "With our faith, we'll go on, 'til it's over..."
                 (the first 2 times it's played the same as tabbed, however
                  for the latter 2 times follows a straight 8th note
                  strumming pattern and the string chugs (x's) don't get 
                  played)

Riff 4 ending alteration   "Say goodbye, it was nice to know you..."
 B|---------------------|
F#|---------------------|
 E|---------------------|
 B|-10--9--7--5--7--5p0-|
F#|-10--9--7--5--7--5p0-|
 B|-10--9--7--5--7--5p0-|

Play Riff 1 x2   "It was nice to know you!!"

Ending:
 B|------------------------0----|
F#|--------0--0------------0----|
 E|--------4--2--------------7~-|
 B|-0-2-0-------0-2-0--4/5---4~-|
F#|-0-2-0-------0-2-0--------0~-|
 B|-0-2-0-------0-2-0--------0~-|

Enjoy!!
Добавлено: 31.10.2013
Другие материалы по этой песне:
  • Аккорды и текст

Страница создана 31.10.2013
http://primanota.ru/sevendust/confessions-without-faith-chords.htm
Привет, Гость.
Предлагаем пройти революционный курс по гитаре.
Подарок от PrimaNota.Ru, забирай!