PrimaNota.ru - самый крупный в мире бесплатный архив песенных текстов, аккордов, табулатур и нот


Sevendust - Black Out The Sun - таба, видео

Регистрация Запомнить меня
Войти через:  Facebook Google Twitter Vk Yandex Mail.ru

Sevendust - Black Out The Sun - таба, видео

Печатать
Просмотров: 70
----------------------------------------------------------------------------
                          Black Out The Sun
                             Sevendust
----------------------------------------------------------------------------

This is the highlight of Sevendust's career. “Black Out The Sun” the album is 
awesome from start to finish. The album song itself is filled with fun riffs and a 
sweet guitar solo. Enjoy!

Username: dkm817 (same on X box live)
Youtube Cover: http://www.youtube.com/watch?v=oV1tqA5bt70
Email: guitardrums@rockfan.com

Guitar 1 Rhythmic (B  F# B  E  G# C# )
Guitar 2 Lead     (B  F# B  E  G# C# )

NOTE: This was exported off of guitar pro.

Guitar 1

      E  S E  S E  S E  S    E  S E  S E  S E  S    E  S E  S E  S E  S  
C#||----------------------|----------------------|----------------------|
G#||----------------------|----------------------|----------------------|
E ||--6--L-6--6-6--L-6--6-|--6--L-6--6-----------|--6--L-6--6-6--L-6--6-|
B ||--4--L-4--4-4--L-4--4-|--0--L-0--0-9--L-9--9-|--4--L-4--4-4--L-4--4-|
F#||--4--L-4--4-4--L-4--4-|--0--L-0--0-7--L-7--7-|--4--L-4--4-4--L-4--4-|
B ||--4--L-4--4-4--L-4--4-|--0--L-0--0-7--L-7--7-|--4--L-4--4-4--L-4--4-|


  E  S E  S E  S E  S    E  S E  S E  S E  S    E  S E  S E   E  E   
----------------------|----------------------|----------------------|
----------------------|----------------------|----------------------|
--6--L-6--6-----------|--6--L-6--6-6--L-6--6-|--6--L-6--6--------7--|
--0--L-0--0-9--L-9--9-|--4--L-4--4-4--L-4--4-|--0--L-0--0----11-----|
--0--L-0--0-7--L-7--7-|--4--L-4--4-4--L-4--4-|--0--L-0--0-----------|
--0--L-0--0-7--L-7--7-|--4--L-4--4-4--L-4--4-|--0--L-0--0-8---------|


  E  S  E  S E  S  E  S    Q    E  Q    E      E   S S E  E  S S E   
------------------------|-------------------|-----------------------|
------------------------|-------------------|-----------------------|
-------------7--L-------|-------------------|-----------------------|
-------11--L------11--L-|----------4----L\--|-----------------------|
--0--L------------------|----------4----L\--|-----------------------|
------------------------|--9----L--4----L\--|--4b--L-2-4-----4-2-4--|


  S E  E  S S S S S S S    E   S S E  E  S S E     S E  E  S S S S S S S  
------------------------|-----------------------|------------------------|
------------------------|-----------------------|------------------------|
------------3-3-3-3-3-3-|-----------------------|------------3-3-3-3-3-3-|
--0-0--0--0-3-3-3-3-3-3-|-----------------------|--0-0--0--0-3-3-3-3-3-3-|
--0-0--0--0-1-1-1-1-1-1-|-----------------------|--0-0--0--0-1-1-1-1-1-1-|
--0-0--0--0-------------|--4b--L-2-4-----4-2-4--|--0-0--0--0-------------|


  E   S S E  E  S S E     S E  E  S S S S S S S    E  S E  S E  S E  S  
-----------------------|------------------------|----------------------|
-----------------------|------------------------|----------------------|
-----------------------|------------3-3-3-3-3-3-|--2--L-2--2-2--L-2--2-|
-----------------------|--0-0--0--0-3-3-3-3-3-3-|--2--L-2--2-2--L-2--2-|
-----------------------|--0-0--0--0-1-1-1-1-1-1-|--0--L-0--0-0--L-0--0-|
--4b--L-2-4-----4-2-4--|--0-0--0--0-------------|----------------------|


  E  S E  S E  S E  S    E   S S E  E  S S E     S E  E  S S S S S S S  
----------------------|-----------------------|------------------------|
----------------------|-----------------------|------------------------|
----------------------|-----------------------|------------3-3-3-3-3-3-|
--2--L-2--2-0--L-0--0-|-----------------------|--0-0--0--0-3-3-3-3-3-3-|
--2--L-2--2-0--L-0--0-|-----------------------|--0-0--0--0-1-1-1-1-1-1-|
--2--L-2--2-0--L-0--0-|--4b--L-2-4-----4-2-4--|--0-0--0--0-------------|


  E   S S E  E  S S E     S E  E  S S S S S S S    E   S S E  E  S S E   
-----------------------|------------------------|-----------------------|
-----------------------|------------------------|-----------------------|
-----------------------|------------3-3-3-3-3-3-|-----------------------|
-----------------------|--0-0--0--0-3-3-3-3-3-3-|-----------------------|
-----------------------|--0-0--0--0-1-1-1-1-1-1-|-----------------------|
--4b--L-2-4-----4-2-4--|--0-0--0--0-------------|--4b--L-2-4-----4-2-4--|


  S E  E  S S S S S S S    E  S E  S E  S E  S    E  S E  S E  S E  S  
------------------------|----------------------|----------------------|
------------------------|----------------------|----------------------|
------------3-3-3-3-3-3-|--2--L-2--2-2--L-2--2-|----------------------|
--0-0--0--0-3-3-3-3-3-3-|--2--L-2--2-2--L-2--2-|--2--L-2--2-0--L-0--0-|
--0-0--0--0-1-1-1-1-1-1-|--0--L-0--0-0--L-0--0-|--2--L-2--2-0--L-0--0-|
--0-0--0--0-------------|----------------------|--2--L-2--2-0--L-0--0-|


  E  S E  S E  S E  S    E  S E  S E  E  E     E  S E  S E  S E  S  
----------------------|---------------------|----------------------|
----------------------|---------------------|----------------------|
----------------------|---------------------|----------------------|
--4--L-4--4-4--L-4--4-|--4--L-4--4-2--2--2--|--0--L-0--0-0--L-0--0-|
--4--L-4--4-4--L-4--4-|--4--L-4--4-2--2--2--|--0--L-0--0-0--L-0--0-|
--4--L-4--4-4--L-4--4-|--4--L-4--4-2--2--2--|--0--L-0--0-0--L-0--0-|


  E  S E  S E  E  E     E  S E  S E  E  E     E  S E  S E  E  E   
---------------------|---------------------|---------------------|
---------------------|---------------------|---------------------|
------------6--6--6--|--4--L-4--4-4--------|--4--L-4--4-4--------|
--0--L-0--0-6--6--6--|--4--L-4--4-4--------|--4--L-4--4-4--------|
--0--L-0--0-4--4--4--|--2--L-2--2-2--------|--2--L-2--2-2--------|
--0--L-0--0----------|---------------0--0--|---------------0--0--|


  E  S E  S E  S E  S    S S S S S S E  E  E     E   S S S S E   S S S S  
----------------------|-----------------------|--------------------------|
----------------------|-----------------------|--------------------------|
--2--L-2--2-2--L-2--2-|--4-4-4-4-4-4----------|--------------------------|
--2--L-2--2-2--L-2--2-|--4-4-4-4-4-4----------|--------------------------|
--0--L-0--0-0--L-0--0-|--2-2-2-2-2-2----------|--------------------------|
----------------------|--------------0--0--0--|--4b--L-2-4---4b--L-2-4---|


  E  S S S S E   S S S S    E   S S E  E  S S E     S E  E  S S S S S S S  
-------------------------|-----------------------|------------------------|
-------------------------|-----------------------|------------------------|
-------------------------|-----------------------|------------3-3-3-3-3-3-|
-------------------------|-----------------------|--0-0--0--0-3-3-3-3-3-3-|
-------------------------|-----------------------|--0-0--0--0-1-1-1-1-1-1-|
-----4-2-4---4b--L-2-4---|--4b--L-2-4-----4-2-4--|--0-0--0--0-------------|


  E   S S E  E  S S E     S E  E  S S S S S S S    E   S S E  E  S S E   
-----------------------|------------------------|-----------------------|
-----------------------|------------------------|-----------------------|
-----------------------|------------3-3-3-3-3-3-|-----------------------|
-----------------------|--0-0--0--0-3-3-3-3-3-3-|-----------------------|
-----------------------|--0-0--0--0-1-1-1-1-1-1-|-----------------------|
--4b--L-2-4-----4-2-4--|--0-0--0--0-------------|--4b--L-2-4-----4-2-4--|


  S E  E  S S S S S S S    E  S E  S E  S E  S    E  S E  S E  S E  S  
------------------------|----------------------|----------------------|
------------------------|----------------------|----------------------|
------------3-3-3-3-3-3-|--2--L-2--2-2--L-2--2-|----------------------|
--0-0--0--0-3-3-3-3-3-3-|--2--L-2--2-2--L-2--2-|--2--L-2--2-0--L-0--0-|
--0-0--0--0-1-1-1-1-1-1-|--0--L-0--0-0--L-0--0-|--2--L-2--2-0--L-0--0-|
--0-0--0--0-------------|----------------------|--2--L-2--2-0--L-0--0-|


  E   S S E  E  S S E     S E  E  S S S S S S S    E   S S E  E  S S E   
-----------------------|------------------------|-----------------------|
-----------------------|------------------------|-----------------------|
-----------------------|------------3-3-3-3-3-3-|-----------------------|
-----------------------|--0-0--0--0-3-3-3-3-3-3-|-----------------------|
-----------------------|--0-0--0--0-1-1-1-1-1-1-|-----------------------|
--4b--L-2-4-----4-2-4--|--0-0--0--0-------------|--4b--L-2-4-----4-2-4--|


  S E  E  S S S S S S S    E   S S E  E  S S E     S E  E  S S S S S S S  
------------------------|-----------------------|------------------------|
------------------------|-----------------------|------------------------|
------------3-3-3-3-3-3-|-----------------------|------------3-3-3-3-3-3-|
--0-0--0--0-3-3-3-3-3-3-|-----------------------|--0-0--0--0-3-3-3-3-3-3-|
--0-0--0--0-1-1-1-1-1-1-|-----------------------|--0-0--0--0-1-1-1-1-1-1-|
--0-0--0--0-------------|--4b--L-2-4-----4-2-4--|--0-0--0--0-------------|


  E  S E  S E  S E  S    E  S E  S E  S E  S    E  S E  S E  S E  S  
----------------------|----------------------|----------------------|
----------------------|----------------------|----------------------|
--2--L-2--2-2--L-2--2-|----------------------|----------------------|
--2--L-2--2-2--L-2--2-|--2--L-2--2-0--L-0--0-|--4--L-4--4-4--L-4--4-|
--0--L-0--0-0--L-0--0-|--2--L-2--2-0--L-0--0-|--4--L-4--4-4--L-4--4-|
----------------------|--2--L-2--2-0--L-0--0-|--4--L-4--4-4--L-4--4-|


  E  S E  S E  E  E     E  S E  S E  S E  S    E  S E  S E  E  E   
---------------------|----------------------|---------------------|
---------------------|----------------------|---------------------|
---------------------|----------------------|------------6--6--6--|
--4--L-4--4-2--2--2--|--0--L-0--0-0--L-0--0-|--0--L-0--0-6--6--6--|
--4--L-4--4-2--2--2--|--0--L-0--0-0--L-0--0-|--0--L-0--0-4--4--4--|
--4--L-4--4-2--2--2--|--0--L-0--0-0--L-0--0-|--0--L-0--0----------|


  E  S E  S E  E  E     E  S E  S E  E  E     E  S E  S E  S E  S  
---------------------|---------------------|----------------------|
---------------------|---------------------|----------------------|
--4--L-4--4-4--------|--4--L-4--4-4--------|--2--L-2--2-2--L-2--2-|
--4--L-4--4-4--------|--4--L-4--4-4--------|--2--L-2--2-2--L-2--2-|
--2--L-2--2-2--------|--2--L-2--2-2--------|--0--L-0--0-0--L-0--0-|
---------------0--0--|---------------0--0--|----------------------|


  S S S S S S E  E  E     E  S E  S E  S E  S    E  S E  S E  E  E   
-----------------------|----------------------|---------------------|
-----------------------|----------------------|---------------------|
--4-4-4-4-4-4----------|----------------------|---------------------|
--4-4-4-4-4-4----------|--4--L-4--4-4--L-4--4-|--4--L-4--4-2--2--2--|
--2-2-2-2-2-2----------|--4--L-4--4-4--L-4--4-|--4--L-4--4-2--2--2--|
--------------0--0--0--|--4--L-4--4-4--L-4--4-|--4--L-4--4-2--2--2--|


  E  S E  S E  S E  S    E  S E  S E  E  E     E  S E  S E  E  E   
----------------------|---------------------|---------------------|
----------------------|---------------------|---------------------|
----------------------|------------6--6--6--|--4--L-4--4-4--------|
--0--L-0--0-0--L-0--0-|--0--L-0--0-6--6--6--|--4--L-4--4-4--------|
--0--L-0--0-0--L-0--0-|--0--L-0--0-4--4--4--|--2--L-2--2-2--------|
--0--L-0--0-0--L-0--0-|--0--L-0--0----------|---------------0--0--|


  E  S E  S E  E  E     E  S E  S E  S E  S    S S S S S S E  E  E   
---------------------|----------------------|-----------------------|
---------------------|----------------------|-----------------------|
--4--L-4--4-4--------|--2--L-2--2-2--L-2--2-|--4-4-4-4-4-4----------|
--4--L-4--4-4--------|--2--L-2--2-2--L-2--2-|--4-4-4-4-4-4----------|
--2--L-2--2-2--------|--0--L-0--0-0--L-0--0-|--2-2-2-2-2-2----------|
---------------0--0--|----------------------|--------------0--0--0--|


  H        Q       H        Q       H        Q       H        Q     
----------------|----------------|----------------|----------------|
----------------|----------------|--7--------L----|--L--------L----|
----------------|----------------|----------------|----------------|
--4--------L----|--L--------L----|--L--------L----|--L--------L----|
--4--------L----|--L--------L----|--L--------L----|--L--------L----|
--4--------L----|--L--------L----|--L--------L----|--L--------L----|


  E  S E  S E  S E  S    E  S E  S E  S E  S    E  S E  S E  S E  S  
----------------------|----------------------|----------------------|
----------------------|----------------------|----------------------|
------------7--L------|------------6--L------|------------7--L------|
-------4--L------4--L-|-------7--L------7--L-|-------9--L------9--L-|
----------------------|----------------------|----------------------|
--4--L----------------|--7--L----------------|--9--L----------------|


  E  S E  S E  S E  S    E  S E  S E  S E  S    E  S E  S E  S E  S  
----------------------|----------------------|----------------------|
----------------------|----------------------|----------------------|
------------6--L------|------------7--L------|------------6--L------|
-------8--L------8--L-|-------5--L------5--L-|-------7--L------7--L-|
----------------------|----------------------|----------------------|
--8--L----------------|--4--L----------------|--7--L----------------|


  H        Q       H        Q       E   S S S S E   S S S S  
----------------|----------------|--------------------------|
----------------|----------------|--------------------------|
----------------|----------------|--------------------------|
----------------|----------------|--------------------------|
----------------|----------------|--------------------------|
--0--------L----|--L--------L----|--4b--L-2-4---4b--L-2-4---|


  E  S S S S E   S S S S    E   S S S S E   S S S S    E  S S S S E   S S S S  
-------------------------|--------------------------|-------------------------|
-------------------------|--------------------------|-------------------------|
-------------------------|--------------------------|-------------------------|
-------------------------|--------------------------|-------------------------|
-------------------------|--------------------------|-------------------------|
-----4-2-4---4b--L-2-4---|--4b--L-2-4---4b--L-2-4---|-----4-2-4---4b--L-2-4---|


  E   S S S S E   S S S S    E  S S S S E   S S S S    E   S S S S E   S S S S  
--------------------------|-------------------------|--------------------------|
--------------------------|-------------------------|--------------------------|
--------------------------|-------------------------|--------------------------|
--------------------------|-------------------------|--------------------------|
--------------------------|-------------------------|--------------------------|
--4b--L-2-4---4b--L-2-4---|-----4-2-4---4b--L-2-4---|--4b--L-2-4---4b--L-2-4---|


                                                           PM PM PM  
  E  S S S S E   S S S S     Q    E   Q     E      Q    E  E  E  E   
-------------------------|---------------------|--------------------|
-------------------------|--11----L--12-----L--|--14----L-----------|
-------------------------|---x--------x--------|---x----------------|
-------------------------|---8----L---9-----L--|--11----L--7--4--2--|
-------------------------|---------------------|-----------7--4--2--|
-----4-2-4---4b--L-2-4---|---------------------|-----------7--4--2--|


  E  S E  S E  S E  S    E  S E  S E  E  E     E  S E  S E  E  E   
----------------------|---------------------|---------------------|
----------------------|---------------------|---------------------|
----------------------|------------6--6--6--|--4--L-4--4-4--------|
--0--L-0--0-0--L-0--0-|--0--L-0--0-6--6--6--|--4--L-4--4-4--------|
--0--L-0--0-0--L-0--0-|--0--L-0--0-4--4--4--|--2--L-2--2-2--------|
--0--L-0--0-0--L-0--0-|--0--L-0--0----------|---------------0--0--|


  E  S E  S E  E  E     E  S E  S E  S E  S    S S S S S S E  E  E   
---------------------|----------------------|-----------------------|
---------------------|----------------------|-----------------------|
--4--L-4--4-4--------|--2--L-2--2-2--L-2--2-|--4-4-4-4-4-4----------|
--4--L-4--4-4--------|--2--L-2--2-2--L-2--2-|--4-4-4-4-4-4----------|
--2--L-2--2-2--------|--0--L-0--0-0--L-0--0-|--2-2-2-2-2-2----------|
---------------0--0--|----------------------|--------------0--0--0--|


  E  S E  S E  S E  S    E  S E  S E  E  E     E  S E  S E  S E  S  
----------------------|---------------------|----------------------|
----------------------|---------------------|----------------------|
----------------------|---------------------|----------------------|
--4--L-4--4-4--L-4--4-|--4--L-4--4-2--2--2--|--0--L-0--0-0--L-0--0-|
--4--L-4--4-4--L-4--4-|--4--L-4--4-2--2--2--|--0--L-0--0-0--L-0--0-|
--4--L-4--4-4--L-4--4-|--4--L-4--4-2--2--2--|--0--L-0--0-0--L-0--0-|


  E  S E  S E  E  E     E  S E  S E  E  E     E  S E  S E  E  E   
---------------------|---------------------|---------------------|
---------------------|---------------------|---------------------|
------------6--6--6--|--4--L-4--4-4--------|--4--L-4--4-4--------|
--0--L-0--0-6--6--6--|--4--L-4--4-4--------|--4--L-4--4-4--------|
--0--L-0--0-4--4--4--|--2--L-2--2-2--------|--2--L-2--2-2--------|
--0--L-0--0----------|---------------0--0--|---------------0--0--|


  E  S E  S E  S E  S    S S S S S S E  E  E     E   S S S S E   S S S S  
----------------------|-----------------------|--------------------------|
----------------------|-----------------------|--------------------------|
--2--L-2--2-2--L-2--2-|--4-4-4-4-4-4----------|--------------------------|
--2--L-2--2-2--L-2--2-|--4-4-4-4-4-4----------|--------------------------|
--0--L-0--0-0--L-0--0-|--2-2-2-2-2-2----------|--------------------------|
----------------------|--------------0--0--0--|--4b--L-2-4---4b--L-2-4---|


  E  S S S S E   S S S S    E   S S S S E   S S S S    E  S S S S E   S S S S  
-------------------------|--------------------------|-------------------------|
-------------------------|--------------------------|-------------------------|
-------------------------|--------------------------|-------------------------|
-------------------------|--------------------------|-------------------------|
-------------------------|--------------------------|-------------------------|
-----4-2-4---4b--L-2-4---|--4b--L-2-4---4b--L-2-4---|-----4-2-4---4b--L-2-4---|


  E   S S S S E   S S S S    E   S S S S E   S S S S    E  S S S S E   S S S S  
--------------------------|--------------------------|-------------------------|
--------------------------|--------------------------|-------------------------|
--------------------------|--------------------------|-------------------------|
--------------------------|--------------------------|-------------------------|
--------------------------|--------------------------|-------------------------|
--4b--L-2-4---4b--L-2-4---|--4b--L-2-4---4b--L-2-4---|-----4-2-4---4b--L-2-4---|


  E   S S E  E   Q            
----------------------|-----||
----------------------|-----||
----------------------|-----||
----------4--L\-------|-----||
----------4--L\-------|-----||
--4b--L-2-4--L\-------|-----||


Guitar 2

                                                              Q    E  Q    E    
C#||-------|-------|-------|-------|-------|-------|-------|-------------------|
G#||-------|-------|-------|-------|-------|-------|-------|-------------------|
E ||-------|-------|-------|-------|-------|-------|-------|-------------------|
B ||-------|-------|-------|-------|-------|-------|-------|----------4----L\--|
F#||-------|-------|-------|-------|-------|-------|-------|----------4----L\--|
B ||-------|-------|-------|-------|-------|-------|-------|----------4----L\--|


  E   S S E  E  S S E     S E  E  S S S S S S S    E   S S E  E  S S E   
-----------------------|------------------------|-----------------------|
-----------------------|------------------------|-----------------------|
-----------------------|------------3-3-3-3-3-3-|-----------------------|
-----------------------|--0-0--0--0-3-3-3-3-3-3-|-----------------------|
-----------------------|--0-0--0--0-1-1-1-1-1-1-|-----------------------|
--4b--L-2-4-----4-2-4--|--0-0--0--0-------------|--4b--L-2-4-----4-2-4--|


  S E  E  S S S S S S S    E   S S E  E  S S E     S E  E  S S S S S S S  
------------------------|-----------------------|------------------------|
------------------------|-----------------------|------------------------|
------------3-3-3-3-3-3-|-----------------------|------------3-3-3-3-3-3-|
--0-0--0--0-3-3-3-3-3-3-|-----------------------|--0-0--0--0-3-3-3-3-3-3-|
--0-0--0--0-1-1-1-1-1-1-|-----------------------|--0-0--0--0-1-1-1-1-1-1-|
--0-0--0--0-------------|--4b--L-2-4-----4-2-4--|--0-0--0--0-------------|


   E  S  E   S  E  S  E   S     E  S  E   S  E  S  E   S  
----------------------------|----------------------------|
--17--L-17--17-17--L-17--17-|--12--L-12--12-12--L-12--12-|
---x-----x---x--x-----x---x-|---x-----x---x--x-----x---x-|
--14--L-14--14-14--L-14--14-|---9--L--9---9--9--L--9---9-|
----------------------------|----------------------------|
----------------------------|----------------------------|


   E  S  E  S  E  S  E  S     E  S  E  S  Q    E      E  S  E  S  E  S  E  S  
--------------------------|-----------------------|--------------------------|
--14--L-15--L-14--L-12--L-|--14--L-15--L-14----L--|--14--L-15--L-14--L-12--L-|
---x-----x-----x-----x----|---x-----x-----x-------|---x-----x-----x-----x----|
--11--L-12--L-11--L--9--L-|--11--L-12--L-11----L--|--11--L-12--L-11--L--9--L-|
--------------------------|-----------------------|--------------------------|
--------------------------|-----------------------|--------------------------|


   E  S  E  S  Q    E      E  S  E  S  E  S  E  S     E  S  E  S  Q    E   
-----------------------|--------------------------|-----------------------|
--14--L-15--L-14----L--|--14--L-15--L-14--L-12--L-|--14--L-15--L-14----L--|
---x-----x-----x-------|---x-----x-----x-----x----|---x-----x-----x-------|
--11--L-12--L-11----L--|--11--L-12--L-11--L--9--L-|--11--L-12--L-11----L--|
-----------------------|--------------------------|-----------------------|
-----------------------|--------------------------|-----------------------|


   E  S  E   S  E  S  E  S     E  S  E   S  E   S  E  S  
---------------------------|----------------------------|
--19--L-14---L-12--L-14--L-|--17--L-15---L-14---L-12--L-|
---x-----x------x-----x----|---x-----x------x------x----|
--16--L-11---L--9--L-11--L-|--14--L-12---L-11---L--9--L-|
---------------------------|----------------------------|
---------------------------|----------------------------|


   E   S  E   S  E  S  E   S     E   S  E   S  E   E   E   
-----------------------------|----------------------------|
--11---L-11--11-11--L-11--11-|--11---L-11--11-12--12--12--|
---x------x---x--x-----x---x-|---x------x---x--x---x---x--|
---8---L--8---8--8--L--8---8-|---8---L--8---8--9---9---9--|
-----------------------------|----------------------------|
-----------------------------|----------------------------|


   E   S  E   S  E  S  E   S     E   S  E   S  E   E   E   
-----------------------------|----------------------------|
--15---L-15--15-15--L-15--15-|--15---L-15--15-15--14--12--|
---x------x---x--x-----x---x-|---x------x---x--x---x---x--|
--12---L-12--12-12--L-12--12-|--12---L-12--12-12--11---9--|
-----------------------------|----------------------------|
-----------------------------|----------------------------|


   E  S  E   S  E   E   E      E  S  E   S  E   E   E   
---------------------------|---------------------------|
--12--L-12--12-12--10--10--|--12--L-12--12-12--10--10--|
---x-----x---x--x---x---x--|---x-----x---x--x---x---x--|
---9--L--9---9--9---7---7--|---9--L--9---9--9---7---7--|
---------------------------|---------------------------|
---------------------------|---------------------------|


   S  S  E   E   S  S  E   E      E   E   E   S  S  S  S  S  S  
------------------------------|--------------------------------|
--14-15-14--14--14-15-14--14--|--17--17--17--19-19-19-19-19-19-|
---x--x--x---x---x--x--x---x--|---x---x---x---x--x--x--x--x--x-|
--11-12-11--11--11-12-11--11--|--14--14--14--16-16-16-16-16-16-|
------------------------------|--------------------------------|
------------------------------|--------------------------------|


   T T  T T  T T  T T  T T  T T  T T  T T  T T  T T  T T  T T  
--------------------------------------------------------------|
--------------------------------------------------------------|
--11---11---11---11---11---11---11---11---11---11---11---11---|
--------------------------------------------------------------|
--------------------------------------------------------------|
--------------------------------------------------------------|


   T T  T T  T T  T T  T T  T T  T T  T T  T T  T T  T T  T T  
--------------------------------------------------------------|
--------------------------------------------------------------|
--11---11---11---11---11---11---11---11---11---11---11---11---|
--------------------------------------------------------------|
--------------------------------------------------------------|
--------------------------------------------------------------|


  E   S S E  E  S S E     S E  E  S S S S S S S    E   S S E  E  S S E   
-----------------------|------------------------|-----------------------|
-----------------------|------------------------|-----------------------|
-----------------------|------------3-3-3-3-3-3-|-----------------------|
-----------------------|--0-0--0--0-3-3-3-3-3-3-|-----------------------|
-----------------------|--0-0--0--0-1-1-1-1-1-1-|-----------------------|
--4b--L-2-4-----4-2-4--|--0-0--0--0-------------|--4b--L-2-4-----4-2-4--|


  S E  E  S S S S S S S    E   S S E  E  S S E     S E  E  S S S S S S S  
------------------------|-----------------------|------------------------|
------------------------|-----------------------|------------------------|
------------3-3-3-3-3-3-|-----------------------|------------3-3-3-3-3-3-|
--0-0--0--0-3-3-3-3-3-3-|-----------------------|--0-0--0--0-3-3-3-3-3-3-|
--0-0--0--0-1-1-1-1-1-1-|-----------------------|--0-0--0--0-1-1-1-1-1-1-|
--0-0--0--0-------------|--4b--L-2-4-----4-2-4--|--0-0--0--0-------------|


   E  S  E   S  E  S  E   S     E  S  E   S  E  S  E   S  
----------------------------|----------------------------|
--17--L-17--17-17--L-17--17-|--12--L-12--12-12--L-12--12-|
---x-----x---x--x-----x---x-|---x-----x---x--x-----x---x-|
--14--L-14--14-14--L-14--14-|---9--L--9---9--9--L--9---9-|
----------------------------|----------------------------|
----------------------------|----------------------------|


   E  S  E  S  E  S  E  S     E  S  E  S  Q    E      E  S  E  S  E  S  E  S  
--------------------------|-----------------------|--------------------------|
--14--L-15--L-14--L-12--L-|--14--L-15--L-14----L--|--14--L-15--L-14--L-12--L-|
---x-----x-----x-----x----|---x-----x-----x-------|---x-----x-----x-----x----|
--11--L-12--L-11--L--9--L-|--11--L-12--L-11----L--|--11--L-12--L-11--L--9--L-|
--------------------------|-----------------------|--------------------------|
--------------------------|-----------------------|--------------------------|


   E  S  E  S  Q    E      E  S  E  S  E  S  E  S     E  S  E  S  Q    E   
-----------------------|--------------------------|-----------------------|
--14--L-15--L-14----L--|--14--L-15--L-14--L-12--L-|--14--L-15--L-14----L--|
---x-----x-----x-------|---x-----x-----x-----x----|---x-----x-----x-------|
--11--L-12--L-11----L--|--11--L-12--L-11--L--9--L-|--11--L-12--L-11----L--|
-----------------------|--------------------------|-----------------------|
-----------------------|--------------------------|-----------------------|


   E  S  E   S  E  S  E  S     E  S  E   S  E   S  E  S  
---------------------------|----------------------------|
--19--L-14---L-12--L-14--L-|--17--L-15---L-14---L-12--L-|
---x-----x------x-----x----|---x-----x------x------x----|
--16--L-11---L--9--L-11--L-|--14--L-12---L-11---L--9--L-|
---------------------------|----------------------------|
---------------------------|----------------------------|


   E   S  E   S  E  S  E   S     E   S  E   S  E   E   E   
-----------------------------|----------------------------|
--11---L-11--11-11--L-11--11-|--11---L-11--11-12--12--12--|
---x------x---x--x-----x---x-|---x------x---x--x---x---x--|
---8---L--8---8--8--L--8---8-|---8---L--8---8--9---9---9--|
-----------------------------|----------------------------|
-----------------------------|----------------------------|


   E   S  E   S  E  S  E   S     E   S  E   S  E   E   E   
-----------------------------|----------------------------|
--15---L-15--15-15--L-15--15-|--15---L-15--15-15--14--12--|
---x------x---x--x-----x---x-|---x------x---x--x---x---x--|
--12---L-12--12-12--L-12--12-|--12---L-12--12-12--11---9--|
-----------------------------|----------------------------|
-----------------------------|----------------------------|


   E  S  E   S  E   E   E      E  S  E   S  E   E   E   
---------------------------|---------------------------|
--12--L-12--12-12--10--10--|--12--L-12--12-12--10--10--|
---x-----x---x--x---x---x--|---x-----x---x--x---x---x--|
---9--L--9---9--9---7---7--|---9--L--9---9--9---7---7--|
---------------------------|---------------------------|
---------------------------|---------------------------|


   S  S  E   E   S  S  E   E      E   E   E   S  S  S  S  S  S  
------------------------------|--------------------------------|
--14-15-14--14--14-15-14--14--|--17--17--17--19-19-19-19-19-19-|
---x--x--x---x---x--x--x---x--|---x---x---x---x--x--x--x--x--x-|
--11-12-11--11--11-12-11--11--|--14--14--14--16-16-16-16-16-16-|
------------------------------|--------------------------------|
------------------------------|--------------------------------|


   E   S  E   S  E  S  E   S     E   S  E   S  E   E   E   
-----------------------------|----------------------------|
--11---L-11--11-11--L-11--11-|--11---L-11--11-12--12--12--|
---x------x---x--x-----x---x-|---x------x---x--x---x---x--|
---8---L--8---8--8--L--8---8-|---8---L--8---8--9---9---9--|
-----------------------------|----------------------------|
-----------------------------|----------------------------|


   E   S  E   S  E  S  E   S     E   S  E   S  E   E   E   
-----------------------------|----------------------------|
--15---L-15--15-15--L-15--15-|--15---L-15--15-15--14--12--|
---x------x---x--x-----x---x-|---x------x---x--x---x---x--|
--12---L-12--12-12--L-12--12-|--12---L-12--12-12--11---9--|
-----------------------------|----------------------------|
-----------------------------|----------------------------|


   E  S  E   S  E   E   E      E  S  E   S  E   E   E   
---------------------------|---------------------------|
--12--L-12--12-12--10--10--|--12--L-12--12-12--10--10--|
---x-----x---x--x---x---x--|---x-----x---x--x---x---x--|
---9--L--9---9--9---7---7--|---9--L--9---9--9---7---7--|
---------------------------|---------------------------|
---------------------------|---------------------------|


   S  S  E   E   S  S  E   E      E   E   E   S  S  S  S  S  S  
------------------------------|--------------------------------|
--14-15-14--14--14-15-14--14--|--17--17--17--19-19-19-19-19-19-|
---x--x--x---x---x--x--x---x--|---x---x---x---x--x--x--x--x--x-|
--11-12-11--11--11-12-11--11--|--14--14--14--16-16-16-16-16-16-|
------------------------------|--------------------------------|
------------------------------|--------------------------------|


  H        Q       H        Q       H        Q       H        Q     
----------------|----------------|----------------|----------------|
----------------|----------------|----------------|----------------|
----------------|----------------|----------------|----------------|
--4--------L----|--L--------L----|--L--------L----|--L--------L----|
--4--------L----|--L--------L----|--L--------L----|--L--------L----|
--4--------L----|--L--------L----|--L--------L----|--L--------L----|


   H        Q       Q    E   Q    E      H         Q       Q    E  Q    E   
-----------------|-------------------|------------------|------------------|
-----------------|-------------------|------------------|------------------|
-----------------|-------------------|------------------|------------------|
--11--------L----|--9----L--11----L--|--11b--------L----|--8----L--9----L--|
-----------------|-------------------|------------------|------------------|
-----------------|-------------------|------------------|------------------|


   H        Q        Q    E   Q    E      Q    E   Q    E      H        Q     
-----------------|--------------------|--------------------|-----------------|
-----------------|--------------------|--------------------|--14--------L----|
--11--------L----|-----------11----L--|--13----L--14----L--|-----------------|
-----------------|--11----L-----------|--------------------|-----------------|
-----------------|--------------------|--------------------|-----------------|
-----------------|--------------------|--------------------|-----------------|


   E  S  E  S  Q     E     E  E   E   Q     E      E  S E  S  E  E  E   
------------------------|----------------------|-----------------------|
--------------10b----L--|--L---------11b----L--|-----------------------|
--/9--L-11--L-----------|-----9--11------------|--------7--L--L--------|
------------------------|----------------------|--11--L----L-11--9--8--|
------------------------|----------------------|-----------------------|
------------------------|----------------------|-----------------------|


  E  E  H             E    S  S  S  S  S  S  S  S  S  S   
------------------|--18b--18-----------------------------|
------------------|----------19-17-19-17----17----17-17b-|
--------9b--------|----------------------18----18--------|
--8--9------------|--------------------------------------|
------------------|--------------------------------------|
------------------|--------------------------------------|


                         PM PM                              
   E   S  S  S  S  S  S  S  S  S  S     Q    E   Q      E   
------------------------------------|----------------------|
--17b--L-19-17----17-------19-------|-----------17b--------|
---------------18----18-18----18-16-|--15----L---------18--|
------------------------------------|----------------------|
------------------------------------|----------------------|
------------------------------------|----------------------|


   Q      E   E   E   E      H         Q       Q    E   E   E   E   
---------------------16--|--16b--------L----|--L----L--19--19--19--|
-------------------------|------------------|----------------------|
--18b----18--16--18------|------------------|----------------------|
-------------------------|------------------|----------------------|
-------------------------|------------------|----------------------|
-------------------------|------------------|----------------------|


   Q     E   Q     E     Q    E    Q     E      E  S  E   S  E   E   E   
--19b----L--19b----L--|--L----L-------------|---------------------------|
----------------------|---------------------|--12--L-12--12-12--10--10--|
----------------------|---------------------|---x-----x---x--x---x---x--|
----------------------|----------/14\----L--|---9--L--9---9--9---7---7--|
----------------------|----------/14\----L--|---------------------------|
----------------------|----------/14\----L--|---------------------------|


   E  S  E   S  E   E   E      S  S  E   E   S  S  E   E   
---------------------------|------------------------------|
--12--L-12--12-12--10--10--|--14-15-14--14--14-15-14--14--|
---x-----x---x--x---x---x--|---x--x--x---x---x--x--x---x--|
---9--L--9---9--9---7---7--|--11-12-11--11--11-12-11--11--|
---------------------------|------------------------------|
---------------------------|------------------------------|


   E   E   E   S  S  S  S  S  S     Q    E   Q     E     Q    E   E   E   E   
--------------------------------|--16----L--16b----L--|--L----L--14--14--16--|
--17--17--17--19-19-19-19-19-19-|---------------------|----------------------|
---x---x---x---x--x--x--x--x--x-|---------------------|----------------------|
--14--14--14--16-16-16-16-16-16-|---------------------|----------------------|
--------------------------------|---------------------|----------------------|
--------------------------------|---------------------|----------------------|


   H         Q        E   E   E   E   E   E      Q     E   Q    E   
--16b--------L----|--14--14--16--16--17--17--|--17b----L--17----L--|
------------------|--------------------------|---------------------|
------------------|--------------------------|---------------------|
------------------|--------------------------|---------------------|
------------------|--------------------------|---------------------|
------------------|--------------------------|---------------------|


   Q     E   Q    E      Q      E   Q      E      H        Q     
--17b----L--17----L--|--19b----17--19b----17--|--24--------L----|
---------------------|------------------------|-----------------|
---------------------|------------------------|-----------------|
---------------------|------------------------|-----------------|
---------------------|------------------------|-----------------|
---------------------|------------------------|-----------------|


   E   S S  E   E   S S  E     E   S S  E   E   S S  E   
----------------------------|---------------------------|
----------------------------|---------------------------|
--11b--L-9-11--11b--L-9-11--|--L--11-9-11--11b--L-9-11--|
----------------------------|---------------------------|
----------------------------|---------------------------|
----------------------------|---------------------------|


   E   S S  E   E   S S  E     E   S S  E   E  S S  E   
----------------------------|--------------------------|
----------------------------|--------------------------|
--11b--L-9-11--11b--L-9-11--|--L--11-9-11--11--L-9-11--|
----------------------------|--------------------------|
----------------------------|--------------------------|
----------------------------|--------------------------|


   E  S  E  S  Q     E      E  S  E  S  Q     E   
--------14--L-----------|------L-14--L--------L--|
--17--L--------------L--|--17--L--------------L--|
--------------17b----L--|------------L-17b----L--|
------------------------|------------------------|
------------------------|------------------------|
------------------------|------------------------|


  E   S  S  E   E   S  S  E       E   S  S  E  E   Q              
-----14-12-14--14b--L-12-14b--|--14b--L-12-14--L\-------|-------||
------------------------------|-------------------------|-------||
------------------------------|-------------------------|-------||
------------------------------|-------------------------|-------||
------------------------------|-------------------------|-------||
------------------------------|-------------------------|-------||


Duration Legend
---------------
W - whole
H - half
Q - quarter
E - 8th
S - 16th
T - 32nd
X - 64th
. - note dotted
|-n-|  - n-tuplets


Tablature Legend
----------------
L - tied note
x - dead note
g - grace note
(n) - ghost note
> - accentuded note
NH - natural harmonic
AH - artificial harmonic
TH - tapped harmonic
SH - semi harmonic
PH - pitch harmonic
h - hammer on
p - pull off
b - bend
br - bendRelease
pb - preBend
pbr - preBendRelease
brb - bendReleaseBend
\n/ - tremolo bar dip
\n - tremolo bar dive
-/n - tremolo bar Release up
/n\ - tremolo bar inverted dip
/n - tremolo bar return
-\n - tremolo bar Release down
S - shift slide
s - legato slide
/ -  slide into from below or out of upwards
\ -  slide into from above or out of downwards
~ - vibrato
W - wide vibrato
tr - trill
TP - tremolo picking
T - tapping
S - slap
P - pop
< - fade in
^ - brush up
v - brush down


That is all! I hope this helped, and be sure to check out my cover if you are
having problems with the tab. Thanks, oh and one last thing... ROCK OUT!!!!
Добавлено: 09.10.2013
Другие материалы по этой песне:
  • Аккорды и текст

Страница создана 09.10.2013
http://primanota.ru/sevendust/black-out-the-sun-chords.htm
Привет, Гость.
Предлагаем пройти революционный курс по гитаре.
Подарок от PrimaNota.Ru, забирай!