PrimaNota.ru - самый крупный в мире бесплатный архив песенных текстов, аккордов, табулатур и нот


Sevendust - Beg To Differ - текст песни, таба, видео

Регистрация Запомнить меня
Войти через:  Facebook Google Twitter Vk Yandex Mail.ru

Sevendust - Beg To Differ - текст песни, таба, видео

Печатать
Просмотров: 99
Band - Sevendust
Song - Beg To Differ
Album - Alpha (2007)
Tuning - Db,Ab,Db,Gb,Bb,Eb

Notes: Not one of my personal favorite Sevendust songs, but still a great song either 
and fun to play. As you see, this is a different tuning that Sevendust use from time to 
like on Black. They also use this tuning on Driven and Aggression. Enjoy!

Intro
|---------------------------------------------------------------|
|---------------------------------------------------------------|
|---------------------------------------------------------------|
|---------------------------------------------------------------|
|-5h6-5h6-5h6-5h6-8p6-5h6-5h6-3h5-5h6-5h6-5h6-5h6-5h6p5~--------|
|--------------------------------------------------------000000-|
                                                         ......

1st Verse
|-----------------------------------------------------|
|-----------------------------------------------------|
|-----------------------------------------------------|
|-0--0--0--0--0--0----------0--0--0--0--0--0--0-1-3/6-|
|-0--0--0--0--0--0----------0--0--0--0--0--0--0-1-3/6-|
|-0--0--0--0--0--0--0-3-1-0-0--0--0--0--0--0--0-1-3/6-|
  .  .  .  .  .  .          .  .  .  .  .  .  . .

Pre-Chorus
|--------------------------------------------------|
|--------------------------------------------------|
|-5/7-7-7-7-7-7\5-5-5-5-5-5/7-7-7-7-7--------------|
|-x-x-x-x-x-x-x-x-x-x-x-x-x-x-x-x-x-x-----0------0-|  2x
|-3/5-5-5-5-5-5\3-3-3-3-3-3/5-5-5-5-5-0-0-0--0-0-0-|
|-------------------------------------0-0-0--0-0-0-|
                                      . .    . .

|--------------------------------------------------|
|--------------------------------------------------|
|--------------------------------------------------|
|-3/5-5-5-5-5-5\3-3-3-3-3-3\1-1-1-1-1-----0------0-|  2x
|-3/5-5-5-5-5-5\3-3-3-3-3-3\1-1-1-1-1-0-0-0--0-0-0-|
|-3/5-5-5-5-5-5\3-3-3-3-3-3\1-1-1-1-1-0-0-0--0-0-0-|
                                      . .    . .

Chorus
|-------------------------------------------------------------------|
|-------------------------------------------------------------------|
|---------------------------------------------------/10-10-10-10-10-|
|-----0------0------0------0------0------0-----------x--x--x--x--x--|
|-0-0-0--0-0-0--0-0-0--0-0-0--0-0-0--0-0-0--0-0-1h3-/8--8--8--8--8--|
|-0-0-0--0-0-0--0-0-0--0-0-0--0-0-0--0-0-0--0-0-1h3-----------------|
  . .    . .    . .    . .    . .    . .    . .

Post-Chorus
|------------------------------------------------|
|------------------------------------------------|
|--------5--------------------5------------------|
|--------x--------------------x------------------|
|-3\-0-0-3-0-0-5-0-0-3-3\-0-0-3-0-0-5-0-0-3h5-3\-|
|-3\-0-0---0-0-5-0-0-3-3\-0-0---0-0-5-0-0-3h5-3\-|
     . .   . .   . .      . .   . .   . .

|---------------------|
|---------------------|
|---------------------|
|-----8-8-8-8-8-8-8-8-|
|-3h5-8-8-8-8-8-8-8-8-|
|-3h5-8-8-8-8-8-8-8-8-|

2nd Verse
|-----------------------------------------------------|
|-----------------------------------------------------|
|-----------------------------------------------------|
|-0--0--0--0--0--0----------------0--0--0--0--0-1-3/6-|
|-0--0--0--0--0--0----------------0--0--0--0--0-1-3/6-|
|-0--0--0--0--0--0--0-3-1-0-0h1p0-0--0--0--0--0-1-3/6-|
  .  .  .  .  .  .                .  .  .  .  . .

Bridge - Guitar 1 - All Palm Muted
|---------------------------------|
|---------------------------------|
|---------------------------------|
|-1-1--1-1-1--1-1-1--1-1-1--1-1-1-|
|-1-1--1-1-1--1-1-1--1-1-1--1-1-1-|
|-1-1--1-1-1--1-1-1--1-1-1--1-1-1-|

Bridge - Guitar 2 - Play slow with wah
|---------------------------------|
|---------------------------------|
|---------------------------------|
|---------------------------------|
|-5h6-5h6-5h6-5h6-5h6-5h6-5h6-5h6-|
|---------------------------------|

Bridge Part 2/Outro
|-----------------x-x-x-----------------x-x-x-x-|
|-----------------x-x-x-----------------x-x-x-x-|
|-----------------x-x-x-----------------x-x-x-x-|
|-----------------x-x-x-----------------x-x-x-x-|
|-000-000-000-000-x-x-x-000-000-000-000-x-x-x-x-|
|-000-000-000-000-------000-000-000-000---------|
  ... ... ... ...       ... ... ... ...
Добавлено: 20.07.2013
Другие материалы по этой песне:
  • Аккорды и текст

Страница создана 26.02.2012
http://primanota.ru/sevendust/beg-to-differ-chords.htm
Привет, Гость.
Предлагаем пройти революционный курс по гитаре.
Подарок от PrimaNota.Ru, забирай!