PrimaNota.ru - самый крупный в мире бесплатный архив песенных текстов, аккордов, табулатур и нот


Sevendust - Abuse Me - таба, видео

Регистрация Запомнить меня
Войти через:  Facebook Google Twitter Vk Yandex Mail.ru

Sevendust - Abuse Me - таба, видео

Печатать
Просмотров: 88
Sevendust: Abuse Me

Transcribed by: Andrew Zara (disturbedfreak0520@yahoo.com)

Date last modified: March 6, 2009

PLEASE DO NOT COPY THIS TAB TO ANOTHER SITE
WITHOUT AUTHORS' PERMISSION. THANK YOU.

Tuning: Drop B

Riff 1
|---------------------------------------------------x-x--x--x-x-x-|
|---------------------------------------------------x-x--x--x-x-x-|
|---------------------------------------------------x-x--x--x-x-x-|
|---------------------------------------------------x-x--x--x-x-x-|
|---------------------------------------------------x-x--x--x-x-x-|
|-0-0-0-0-0-0-0-0-0-0-0-0-0-0-0-0-0-0-0-0-0-0-0-0-0---------------|
  * * * * * * * * * * * * * * * * * * * * * * * * *

Riff 2   "Silly that you think that..."
|-------------------------------------------------------------------------|
|-------------------------------------------------------------------------|
|---------------------------------------------------10-10\9-9/12-12-12-12-|
|---------------------------------------------------x--x--x-x-x--x--x--x--|
|---------------------------------------------------8--8\\7-7/10-10-10-10-|
|-0-0-0-0-0-0-0-0-0-0-0-0-0-0-0-0-0-0-0-0-0-0-0-0-0-----------------------|

Riff 2a
|------------------------------------------------------------------|
|------------------------------------------------------------------|
|---------------------------------------------------10-10\9/10\9-9-|
|---------------------------------------------------x--x--x-x--x-x-|
|---------------------------------------------------8--8\\7/8\\7-7-|
|-0-0-0-0-0-0-0-0-0-0-0-0-0-0-0-0-0-0-0-0-0-0-0-0-0----------------|

Riff 3 - Clean   "Deception is the way..."
|-------------------------------------------------------------------------|
|-------------------------------------------------------------------------|
|-------------------------------------------------------------------------|
|-------------------------------------------------------------------------|
|-------------------------------------------------------------------------|
|-12-0-0-10-0-0-12-0-0-12-13-0-10-0-0-12-13-0-0-12-13-0-12-12\8-8-8-8-8-8-|

Riff 4   "Abuse me and only..."
|---------------------------------------------|
|---------------------------------------------|
|-10-10-10-10-10-10-10-10-10-10-10-10/12-12---|
|-8--8--8--8--8--8--8--8--8--8--8--8//10-10-0-|
|-8--8--8--8--8--8--8--8--8--8--8--8//10-10-0-|
|-8--8--8--8--8--8--8--8--8--8--8--8//10-10-0-|

|--------------------------------|
|--------------------------------|
|-7-7-7-7-7-7-7-7-7-7-7-7/10-9---|
|-5-5-5-5-5-5-5-5-5-5-5-5/8--7-0-|
|-5-5-5-5-5-5-5-5-5-5-5-5/8--7-0-|
|-5-5-5-5-5-5-5-5-5-5-5-5/8--7-0-|

|---------------------------------------------------------|
|---------------------------------------------------------|
|-2-2-2-2-2-2-2-2-2-2-2-2-10-10---5-5-5-5-5-5-5-5-5-5-5-5-|
|-0-0-0-0-0-0-0-0-0-0-0-0-8--8--0-3-3-3-3-3-3-3-3-3-3-3-3-|
|-0-0-0-0-0-0-0-0-0-0-0-0-8--8--0-3-3-3-3-3-3-3-3-3-3-3-3-|
|-0-0-0-0-0-0-0-0-0-0-0-0-8--8--0-3-3-3-3-3-3-3-3-3-3-3-3-|

Riff 4a
|-------|
|-------|
|-7~~~~-|
|-5~~~~-|
|-5~~~~-|
|-5~~~~-|

Riff 1a
|-0-------------------------------------------------x-x--x--x-x-|
|-0-------------------------------------------------x-x--x--x-x-|
|---------------------------------------------------x-x--x--x-x-|
|---------------------------------------------------x-x--x--x-x-|
|---------------------------------------------------x-x--x--x-x-|
|---0-0-0-0-0-0-0-0-0-0-0-0-0-0-0-0-0-0-0-0-0-0-0-0-------------|
    * * * * * * * * * * * * * * * * * * * * * * * *

Play Riff 2   "Sorry to break the news..."
Play Riff 2a
Play Riff 3   "Deception is the way..."

Riff 3a - Clean
|-------------------------------------------------------------------------|
|-------------------------------------------------------------------------|
|-------------------------------------------------------------------------|
|-------------------------------------------------------------------------|
|-------------------------------------------------------------------------|
|-12-0-0-10-0-0-12-0-0-12-15-0-10-0-0-12-15-0-0-12-15-0-15-15\8-8-8-8-8-8-|

Play Riff 4   "Abuse me and only..."

Riff 5 - Clean fingerpicked
|----------------------------------------|
|----------------------------------------|
|----------------------------------------|
|-14----12----8~---------14----12----12~-|
|----------------------------------------|
|-12----10----5~---------12----10----0~~-|

Play Riff 3   Distorted
Play Riff 3a  Distorted
Play Riff 4   "Abuse me and only..."
Play Riff 1a  "Leave the blame inside of you!"

Enjoy!

 
Добавлено: 02.09.2013
Другие материалы по этой песне:
  • Аккорды и текст

Страница создана 02.09.2013
http://primanota.ru/sevendust/abuse-me-chords.htm
Привет, Гость.
Предлагаем пройти революционный курс по гитаре.
Подарок от PrimaNota.Ru, забирай!