PrimaNota.ru - самый крупный в мире бесплатный архив песенных текстов, аккордов, табулатур и нот


Seven Wiser - Lies - текст песни, таба, видео

Регистрация Запомнить меня
Войти через:  Facebook Google Twitter Vk Yandex Mail.ru

Seven Wiser - Lies - текст песни, таба, видео

Печатать
Просмотров: 134
(intro)
e-----------------------------------------------------------------|
b-----------------------------------------------------------------|
g----0---0---0---0---0---0-----0---0------------------------------|x2
d------6-------6-------6---------6--------------------------------|
a----------3-------4-------5s6------------------------------------|
d--3--------------------------------------------------------------|

(riff #1)
e-----------------------------------------------------------------|
b-----------------------------------------------------------------|
g------------------------------xx6-xx8----------------------------|x2
d--6h5h3-3---66-333-66-333-----xx6-xx8----------------------------|
a--6h5h3-3---66-333-66-333-----xx4-xx6----------------------------|
d--6h5h3-3---66-333-66-333----------------------------------------|

(intro) x4

(riff #2)
e----------------------------------------------------------------|
b----------------------------------------------------------------|
g------...-----....---....-----....------------------------------|
d--333-3333-10-101010-11111111-13131313--------------------------|
a--333-3333-10-101010-11111111-13131313--------------------------|
d--333-3333-10-101010-11111111-13131313--------------------------|

e----------------------------------------------------------------|
b----------------------------------------------------------------|
g------...-----....---....---------------------------------------|
d--333-3333-10-101010-11111111-xx6xx5----------------------------|
a--333-3333-10-101010-11111111-xx6xx5----------------------------|
d--333-3333-10-101010-11111111-xx6xx5----------------------------|

thats pretty much most of it.
too lazy to finish it off.
whatever im missin.
Добавлено: 09.06.2012
Другие материалы по этой песне:
  • Аккорды и текст

Страница создана 15.04.2012
http://primanota.ru/seven-wiser/lies-chords.htm
Привет, Гость.
Предлагаем пройти революционный курс по гитаре.
Подарок от PrimaNota.Ru, забирай!