PrimaNota.ru - самый крупный в мире бесплатный архив песенных текстов, аккордов, табулатур и нот


Seven Mary Three - My My - аккорды и текст, таба, видео

Регистрация Запомнить меня
Войти через:  Facebook Google Twitter Vk Yandex Mail.ru

Seven Mary Three - My My - аккорды и текст, таба, видео

Печатать
Просмотров: 217
My My
Seven Mary Three
'MY, MY'
SEVEN MARY THREE from the album "AMERICAN STANDARD"
Transcribed by  Jason Leonard 


Chords:


	  G	  A	  B	G5open	A7Sus4	G7M/B  
	-----	-----	-----	----	-----	-----
	-----	-----	-----	--3--	--3--	--3--
	--4--	--6--	--8--	--0--	--0--	--0--
	--5--	--7--	--9--	--0--	--2--	--4--
	--5--	--7--	--9--	--x--	--0--	--2--
	--3--	--5--	--7--	--3--	-----	-----



0:00- 0:30

      G               A              Bm       A
My My stomach hurts again tonite she says and crashes on her floor

G             A            Bm               A 
cuts what she can't untie, ties it to a door

       G           A                Bm             A
and if mercy was a cattle call she didn't hear she didn't want to 

G                     A                 Bm  
play the role of the fool again won't be fooled again


0:31- 0:43

G            A            B  A   
indifference as my witness I think she'd take me back

G                A                  B
she tears down my front door just to see my photograph


0:44- 1:13

      G               A                 Bm             A
my my head is getting so confused she says what's she trying to do to me?

G                A        Bm        A
put my sticker on her car bought a CD

       G           A                Bm             A
and if mercy was a cattle call she didn't hear she didn't want to 

G                     A                 Bm  
play the role of the fool again won't be fooled again


1:14- 1:28

G            A            B  A   
indifference as my witness I think she'd take me back

G                A                  B
she tears down my front door just to hear my phonograph


it spins...


1:29- 1:50

Bridge: * clean, let ring *

G5open	A7Sus4	G7M/B  	A7sus4

G5open	               A7Sus4	
  I ain't too proud to beg sweet darlin

G7M/B  	           A7sus4
don't you leave my baby don't you go

G5open	               A7Sus4
  I ain't too proud to beg sweet darlin

G7M/B  	           A7sus4
 don't you leave me



Guitar Solo:  1:51- 2:18

* Rhythm Guitar plays chords during solo *
G	A	B	A



Lead Guitar Solo:


---------------|-------------|-----------|-----------------|
---------------|-------------|-----------|-----------------| * ' means bend *
---------------|-------------|----------7|7'7'7'7'7'---7---|
------------5-7|7------7-5--5|9----9-7-9-|--------------9-7|
5-------5~7----|-----------7-|-----------|-----------------|
---------------|-------------|-----------|-----------------|

----------------|----------------|--------|--------------|
----------------|----------------|--------|--------------|
----------------|----------------|--------|9'------9-----|
7~9-------9-7---|----------------|--------|--------------|
-------------9-7|7~9------9-7-5-5|---7----|--------------|
----------------|----------------|7-------|--------------|


----------------|-----------------|------------------|---------------|
----------------|-----------------|------------------|-------------12|
--------------12|-----------------|----------------12|14'-12--12-14--|
12-------12-14--|14'-----12--12-14|14'----12--12-14--|------14-------|
-------14-------|----------14-----|---------14-------|---------------|
----------------|-----------------|------------------|---------------|

-----------------------|-----------------------|
12-12-12-12-12-12-12---|14-14-14-14-14-14-14---|
14'14'14'14'14'14'14-14|16'16'16'16'16'16'16-16|
-----------------------|-----------------------|
-----------------------|-----------------------|
-----------------------|-----------------------|

-----------------------|-----------------------|
15-15-15-15-15-15-15---|19' (bend to sound) ---|
17'17'17'17'17'17'17-17|-----------------------|
-----------------------|-----------------------|
-----------------------|-----------------------|
-----------------------|-----------------------|

2:19- end

      G                    A                 Bm          A
My My skin can't take much more of this, she says you're scaling over me

G            A           Bm                   A
every time I wash it off, I find you underneath

      G           A                Bm             A
and if mercy was a cattle call she didn't hear she didn't want to 

G                     A                 Bm           Bm
play the role of the fool again won't be fooled again



(c)1998 Seven Mary Three Music, BMI. All rights reserved. 
Administered by EMI Publishing. Lyrics reprinted by permission.

Добавлено: 15.04.2012
Другие материалы по этой песне:
  • Аккорды и текст

Страница создана 04.04.2012
http://primanota.ru/seven-mary-three/my-my-chords.htm
Привет, Гость.
Предлагаем пройти революционный курс по гитаре.
Подарок от PrimaNota.Ru, забирай!