PrimaNota.ru - самый крупный в мире бесплатный архив песенных текстов, аккордов, табулатур и нот


Seven Mary Three - Favorite Dog - аккорды и текст, таба, видео

Регистрация Запомнить меня
Войти через:  Facebook Google Twitter Vk Yandex Mail.ru

Seven Mary Three - Favorite Dog - аккорды и текст, таба, видео

Печатать
Просмотров: 165
Favorite Dog
Seven Mary Three
'FAVORITE DOG'
SEVEN MARY THREE from the album "AMERICAN STANDARD"
Transcribed by  Jason Leonard


Chords:

	  E	 E5	Dadd9	  A	E5/B	 B5	 A5
	--0--	-----	--0--	--0--	-----	-----	-----
	--0--	-----	--3--	--2--	-----	-----	-----
	--1--	--x--	--2--	--2--	--9--	-----	-----
	--2--	--2--	--0--	--2--	--9--	--9--	--7--
	--2--	--2--	-----	--0--	--7--	--9--	--7--
	--0--	--0--	-----	-----	--7--	--7--	--5--
	


Intro:  0:00- 0:12
* Let chords ring.  Use E chords & play with the each note in the chord *

Verse:  0:13- 1:00
* During verse, play guitar fill 1 *

E  ( with guitar fill 1 )
That's my other hand, open and empty
it wants one too I guess
that's my other jaw, swollen and shameless
it talks too much I know

* Guitar Fill 1- To be played during verses *

----------|-------|-------|-------|
----------|-------|-------|----5--|
----------|-------|-------|-------|
----------|6---7--|9------|7------|
-----7'---|-------|-------|-------|
0---------|-------|-------|-------|
 bend 7'                   


Pre-chorus:  1:01- 1:48
Dadd9    A               E
And another singer is born, with every sip I take

Dadd9     A               E
Drain away my words, just like they were my flesh and bone

Dadd9       A             E
and they're barking at me, yeah they're working on me

Dadd9  A                 E 
  just like my favorite dog


Chorus:  1:49- 2:31

E5/B     B5   A5           E5/B
Geronimo, yeah look out below

E5/B              B5             A5               E5/B
I love that rusty water like it was my favorite dog

E5/B     B5   A5           E5/B
Geronimo,   yeah look out below

E5/B              B5            A5              E5/B
I love that rusty water like it was my favorite dog

* Before 2nd verse, there is several E chords that are played *

Verse:  2:32- 3:19

E
That's my other head, open and bleeding
it thinks too much I guess
that's my other eye, swollen, but fearless
it's seen too much I know

Pre-chorus:  3:20- 4:07
Dadd9    A               E
And another singer is killed, with every sip I take

Dadd9     A               E
Drain away my words, just like they were my flesh and bone

Dadd9       A             E
and they're barking at me, yeah they're working on me

Dadd9  A                 E 
  just like my favorite dog


Verse:  4:08- 4:30
* Vocals are quiet *

E
Don't think there's nothing
You're the queen of my side
You're wrong, and after me,
I was born to die


Interlude:  4:31- 5:17
* The chord is still in E; here is where the little guitar solo is *
* As the song goes on, the E chord is strummed over & over, getting louder *

0~2----2--------|----------------|---------------|---------------|
-----0-------0--|0~2----2--------|---------------|------0---0----|
---------------1|-----1------1---|1~2----2--1----|----1-------1--|
----------------|--------------2-|-----2------2--|--------------2|
----------------|----------------|--------------2|---------------|
----------------|----------------|---------------|0--------------|

0~2----2--------|----------------|---------------|---------------|
-----0-------0--|0~2----2--------|---------------|---------------|
---------------1|-----1------1---|1~2----2--1----|---------1-----|
----------------|--------------2-|-----2------2--|------2--------|
----------------|----------------|--------------2|----2----------|
----------------|----------------|---------------|0--------------|

* Keep repeating this part until about 5:18 in the song when the E-chord
  gets louder & is strummed faster *

* At 5:32 in the song a progression upward occurs.  This is to be played
  while the E-chord is still being strummed faster.

Chord progression upwards:  5:32- 5:40

E
|-----------|--------|--------|-----------|
|-----------|--------|--------|-----------|
|-9/10/11/12|12/13/14|15/16/17|18/19/20/21|
|-9/10/11/12|12/13/14|15/16/17|18/19/20/21|
|-7/8-/9-/10|10/11/12|13/14/15|16/17/18/19|
|-----------|--------|--------|-----------|


Chorus:  5:41- end

E5/B     B5   A5           E5/B
Geronimo, yeah look out below

E5/B              B5             A5               E5/B
I love that rusty water like it was my favorite dog

E5/B     B5   A5           E5/B
Geronimo, yeah look out below

E5/B              B5            A5              E5/B
I love that rusty water like it was my favorite dog

E5/B     B5   A5           E5/B
Geronimo, yeah look out below

E5/B              B5            A5              E5/B
I love that rusty water like it was my favorite dog

* End part of song, where is slows down, is just E-chords *





(c)1998 Seven Mary Three Music, BMI. All rights reserved. 
Administered by EMI Publishing. Lyrics reprinted by permission.
Добавлено: 16.04.2012
Другие материалы по этой песне:
  • Аккорды и текст

Страница создана 20.03.2012
http://primanota.ru/seven-mary-three/favorite-dog-chords.htm
Привет, Гость.
Предлагаем пройти революционный курс по гитаре.
Подарок от PrimaNota.Ru, забирай!