PrimaNota.ru - самый крупный в мире бесплатный архив песенных текстов, аккордов, табулатур и нот


Seven Day Jesus - Forgive You Rape My Soul - таба, видео

Регистрация Запомнить меня
Войти через:  Facebook Google Twitter Vk Yandex Mail.ru

Seven Day Jesus - Forgive You Rape My Soul - таба, видео

Печатать
Просмотров: 90
		   "Forgive You (Rape My Soul)"
Written and Performed by Seven Day Jesus
On the 5 Minute Walk album "The Hunger"
(C)1996 5 Minute Walk Records
Tabbed by Zach Hughes (jhughes@marauder.millersv.edu)

Intro:
e--------------------------------------------------------------------
b--------------------------------------------------------------------
g-4-4-4-4-4-4-4-4-4~-4~-(Repeat 9 times)-1---------------------------
d--------------------------------------------------------------------
a--------------------------------------------------------------------
e--------------------------------------------------------------------

Verse:
e-0-0-0---0----------------------------------------------------------
b-0-0-0-0---0--------------------------------------------------------
g-1-1-1------(Repeat 4 times)----------------------------------------
d-2-2-2--------------------------------------------------------------
a--------------------------------------------------------------------
e--------------------------------------------------------------------

Chorus:
e--------------------------------------------------------------------
b--------------------------------------------------------------------
g----------------------(Repeat 4 times)------------------------------
d--------------------------------------------------------------------
a-9-9-9-6-6-9-9-9-6-6------------------------------------------------
e-7-7-7-4-4-7-7-7-4-4------------------------------------------------

Verse

Chorus

Bridge:
e--------------------------------------------------------------------
b--------------------------------------------------------------------
g--------------------------------(Repeat 4 times)--------------------
d--------------------------------------------------------------------
a-9-9-9-11-11-9-9-9-11-11-11-11--------------------------------------
e-7-7-7-9--9--7-7-7-9--9--9--9---------------------------------------

e--------------------------------------------------------------------
b--------------------------------------------------------------------
g---------------------------(Repeat 3 times)-------------------------
d--------------------------------------------------------------------
a--------------------------------------------------------------------
e-7-7-9-7-7-9-7-7-9-7-7-9-7------------------------------------------

e--------------------------------------------------------------------
b--------------------------------------------------------------------
g------------(Repeat 4 times)----------------------------------------
d---------9----------------------------------------------------------
a-11-9-11-7----------------------------------------------------------
e-9--7-9-------------------------------------------------------------

Chorus

Verse

Chorus     
Добавлено: 19.08.2013
Другие материалы по этой песне:
  • Аккорды и текст

Страница создана 19.08.2013
http://primanota.ru/seven-day-jesus/forgive-you-rape-my-soul-chords.htm
Привет, Гость.
Предлагаем пройти революционный курс по гитаре.
Подарок от PrimaNota.Ru, забирай!