PrimaNota.ru - самый крупный в мире бесплатный архив песенных текстов, аккордов, табулатур и нот


Seven Against Thebes - I Guess Your Not Interested In Today - таба, видео

Регистрация Запомнить меня
Войти через:  Facebook Google Twitter Vk Yandex Mail.ru

Seven Against Thebes - I Guess Your Not Interested In Today - таба, видео

Печатать
Просмотров: 72
-------------------------------------------------------------------------------
      I Guess Your Not Interested In Today - Seven Against Thebes
-------------------------------------------------------------------------------

Tuning: Drop C# (C#,G#,C#,F#,A#,D#)

Intro
D#|-x---------------------------------------------------------|
A#|-x---------------------------------------------------------|
F#|-x---------------------------------------------------------|
C#|-x--X—(A Bunch Of Times)-----------------------------------|
G#|-x---------------------------------------------------------|
C#|-x---------------------------------------------------------|

(part 1)
D#|--//-----0--------2-----------------4----------------------|
A#|--//-----0--------2-----------------4----------------------|
F#|--//-----0--------2-----------------4----------------------|
C#|--//-----0-X-32---2-X-32----(X 2)---4----(G-tar Riff)------|
G#|--//-----0--------2-----------------4----------------------|
C#|--//-----0--------2-----------------4----------------------|

(part 2)
D#|--------------------------------------------/--------------|
A#|--------------------------------------------/--------------|
F#|-6------6-6--7-7----2------2--4-4-4---------/--------------|
C#|-4-X 8--4-4--7-7----0-X-8--0--2-2-2--X 2----/--------------|
G#|-4------4-4--5-5----0------0--2-2-2---------/--------------|
C#|-4------4-4-------------------2-2-2---------/--------------|
PM . . . . . .         . . . . .

(Part 3) [Fast]
D#|-----------------------------------------------------------|
A#|-----------------------------------------------------------|
F#|--6-------7------2------4----------------------------------|
C#|--4-X 6---7-X 6--0-X 6--2-X 8------------------------------|
G#|--4-------5------0------2----------------------------------|
C#|--4---------------------2----------------------------------|

(part 4)
D#|-----------------------------------------------------------|
A#|-----------------------------------------------------------|
F#|-----------------------------------------------------------|
C#|--4-4--4-4-----0-0--0-0----4-4--4-4----2-2--2-2------------|
G#|--4-4--4-4-----0-0--0-0----4-4--4-4----2-2--2-2------X 2---|
C#|--4-4--4-4-----0-0--0-0----4-4--4-4----2-2--2-2------------|

D#|-----------------------------------------------------------|
A#|-----------------------------------------------------------|
F#|-----------------------------------------------------------|
C#|--4-4--4-4----4-4--4-4-----0-0--0-0----0-0--0-0-0----------|
G#|--4-4--4-4----4-4--4-4-----0-0--0-0----0-0--0-0-0----------|
C#|--4-4--4-4----4-4--4-4-----0-0--0-0----0-0--0-0-0----------|
PM               . .  . .                 . .  . . .

D#|-----------------------------------------------------------|
A#|-----------------------------------------------------------|
F#|-----------------------------------------------------------|
C#|--4-4--4-4----4-4--4-4-----2-2--2-2----2-2--2-2-2----------|
G#|--4-4--4-4----4-4--4-4-----2-2--2-2----2-2--2-2-2----------|
C#|--4-4--4-4----4-4--4-4-----2-2--2-2----2-2--2-2-2----------|
PM               . .  . .                 . .  . . .




(part 5)
D#|-----------------------------------------------------------|
A#|-----------------------------------------------------------|
F#|-----------------------------------------------------------|
C#|--4-4--4-4--4-4--4-4--4-4-4-4------------------------------|
G#|--4-4--4-4--4-4--4-4--4-4-4-4------------------------------|
C#|--4-4--4-4--4-4--4-4--4-4-4-4------------------------------|
PM   . .  . .  . .  . .  . . . .



Verse 
D#|-----------------------------------------------------------|
A#|-----------------------------------------------------------|
F#|-----------------------------------------------------------|
C#|--4-------0-------4-------2--------------------------------|
G#|--4-X 16--0-X-16--4-X-16--2-X 16---------------------------|
C#|--4-------0-------4-------2--------------------------------|
    Separated by endless streetlights…

Pre Chorus
D#|-----------------------------------------------------------|
A#|-----------------------------------------------------------|
F#|-----------------------------------------------------------|
C#|--4-4--4-4----4-4--4-4-----0-0--0-0----0-0--0-0-0----------|
G#|--4-4--4-4----4-4--4-4-----0-0--0-0----0-0--0-0-0----------|
C#|--4-4--4-4----4-4--4-4-----0-0--0-0----0-0--0-0-0----------|
PM               . .  . .                 . .  . . .
   This ones, For not letting go…

D#|-----------------------------------------------------------|
A#|-----------------------------------------------------------|
F#|-----------------------------------------------------------|
C#|--4-4--4-4----4-4--4-4-----2-2--2-2----2-2--2-2-2----------|
G#|--4-4--4-4----4-4--4-4-----2-2--2-2----2-2--2-2-2----------|
C#|--4-4--4-4----4-4--4-4-----2-2--2-2----2-2--2-2-2----------|
PM               . .  . .                 . .  . . .


Chorus
D#|-----------------------------------------------------------|
A#|-----------------------------------------------------------|
F#|-------------------------14-----------16----14-------------|
C#|--16-----------12------------------------------------------|
G#|-----------------------------------------------------------|
C#|-----------------------------------------------------------|
   With useless dream we say goodbye…

G-tar Riff
D#|-----------------------------------------------------------|
A#|-----------------------------------------------------------|
F#|-----------------------------------------------------------|
C#|--4--------------------------------------------------------|
G#|--4--------------------------------------------------------|
C#|--4--------------------------------------------------------|


Part 3

Part 5

Verse

Pre Chorus

Chorus X 2


D#|-----------------------------------------------------------|
A#|-----------------------------------------------------------|
F#|-----------------------------------------------------------|
C#|---4-------------------------------------------------------|
G#|---4-(Turning up volume Knob)------------------------------|
C#|---4-------------------------------------------------------|


Part 4

D#|-----------------------------------------------------------|
A#|-----------------------------------------------------------|
F#|-----------------------------------------------------------|
C#|--4-4--4-4-4--4-4-4---0-0--0-0-0--0-0-0--------------------|
G#|--4-4--4-4-4--4-4-4---0-0--0-0-0--0-0-0--------------------|
C#|--4-4--4-4-4--4-4-4---0-0--0-0-0--0-0-0--------------------|

D#|-----------------------------------------------------------|
A#|-----------------------------------------------------------|
F#|-----------------------------------------------------------|
C#|--4-4--4-4-4--4-4-4---2-2--2-2-2--2-2-2--------------------|
G#|--4-4--4-4-4--4-4-4---2-2--2-2-2--2-2-2--------------------|
C#|--4-4--4-4-4--4-4-4---2-2--2-2-2--2-2-2--------------------|

D#|-----------------------------------------------------------|
A#|-----------------------------------------------------------|
F#|--6--------------------------------------------------------|
C#|--x—X 8--7------9-------X 2--------------------------------|
G#|--4------5-X-4--7-X-4--------------------------------------|
C#|--0------0------0------------------------------------------|
   Fuuuuuuuuuuuuuuuuuuccccck

First Breakdown
D#|--------x--------------------------------------------------|
A#|--------0--------------------------------------------------|
F#|--------0--------------------------------------------------|
C#|--0-----0---0-0-0--0-0-0-----X 4---------------------------|
G#|--0-X8--0---0-0-0--0-0-0-----------------------------------|
C#|--0-----0---0-0-0--0-0-0-----------------------------------|
PM   . .       . . .  . . .
   You Liar!

Second Breakdown
D#|------------------------------------------------------------|
A#|--------------------10--------------------------------------|
F#|--------10----------7---------------------------------------|
C#|--0-----7---0-0--0------0-0-0----X 8------------------------|
G#|--0-X 6-----0-0--0------0-0-0-------------------------------|
C#|--0---------0-0--0------0-0-0-------------------------------|

Chorus x 2                              /  - Slide      x  - Dead Note



Link http://www.myspace.com/sevenagainstthebesmusic
Добавлено: 13.05.2012
Вам также может быть интересно:
Другие материалы по этой песне:
  • Аккорды и текст

Страница создана 13.05.2012
http://primanota.ru/seven-against-thebes/i-guess-your-not-interested-in-today-chords.htm
Привет, Гость.
Предлагаем пройти революционный курс по гитаре.
Подарок от PrimaNota.Ru, забирай!