PrimaNota.ru - самый крупный в мире бесплатный архив песенных текстов, аккордов, табулатур и нот


Sevag Oystein - Rio Amazonas - таба, видео

Регистрация Запомнить меня
Войти через:  Facebook Google Twitter Vk Yandex Mail.ru

Sevag Oystein - Rio Amazonas - таба, видео

Печатать
Просмотров: 145
Band Name: Øystein Sevåg
Song: Rio Amazonas
Tabbed by: Thomas Andre Teigland
(thomas_teigland@yahoo.com)
Date: 04.11.01 


This beautiful song by Øystein Sevåg is played by 2
guitars and a piano. The song starts out with 1
guitar playing the following:

Verse 1, guitar 1:
e|--------3-----------3-----------2-----------2-----|
B|-----0----0------0-----0-----0-----0-----0-----0--|
G|--------------------------------------------------|
D|--2-----------2-----------0-----------0-----------|
A|--------------------------------------------------|
E|--------------------------------------------------|


e|--------0-----------0-----------2-----------2-----|
B|-----0-----0-----0-----0-----0-----0-----0-----0--|
G|--------------------------------------------------|
D|--------------------------0-----------0-----------|
A|--3-----------3-----------------------------------|
E|--------------------------------------------------|

The scond guitar sets in by playing the following,
the first guitar still playing Verse 1.

Verse 1, guitar 2:
e|--------------------------------------------------|
B|--8--10--12------10s8s7--7s10------8p7------------|
G|----------------------------------------9---------|
D|--------------------------------------------------|
A|--------------------------------------------------|
E|--------------------------------------------------|


e|-------------------------------------10s12--10----|
B|--8--10--12------10s8s7--7s10---------------------|
G|--------------------------------------------------|
D|--------------------------------------------------|
A|--------------------------------------------------|
E|--------------------------------------------------|

               T                    (very soft)
e|--------------------------------------------------|
B|--12p10--12-13-12p10h12---5h7p5-7----------5s7--5-|
G|--------------------------------------------------|
D|------------------------------------9p7-9---------|
A|--------------------------------------------------|
E|--------------------------------------------------|


e|--------------------------------------------------|
B|--7--8--10--12------10s8s7--7s10------------------|
G|--------------------------------------------------|
D|--------------------------------------------------|
A|--------------------------------------------------|
E|--------------------------------------------------|

                              (     very soft      )
e|--------------------------------------------------|
B|--8p7--10s8s7--8----------------------------------|
G|------------------9--7p7h9------------------------|
D|----------------------------9p7h9--9p7--9-10-9p7h9|
A|--------------------------------------------------|
E|--------------------------------------------------|


e|--------------------------------------------------|
B|-----7--8--10--12------10s8s7--7s10---------------|
G|--9-----------------------------------------------|
D|--------------------------------------------------|
A|--------------------------------------------------|
E|--------------------------------------------------|

                           T              T
e|--s14--10-----------------------------------------|
B|-------------12p10--12-13-12p10h12----7-8-7p5h7---|
G|--------------------------------------------------|
D|--------------------------------------------------|
A|--------------------------------------------------|
E|--------------------------------------------------|

Now the first guitar goes over to playing the
following: 

Verse 2, guitar 1:
e|--------0-----------0-----------------------------|
B|-----0-----0--------------------3-----------3-----|
G|-----------------2-----2-----2-----2-----0-----0--|
D|--------------------------------------------------|
A|--3-----------3-----------2-----------2-----------|
E|--------------------------------------------------|


e|--------------------------------------------------|
B|--------1-----------1-----------0-----------0-----|
G|-----0-----0--------------------------------------|
D|-----------------4-----4-----4-----4-----2-----2--|
A|--0-----------0-----------------------------------|
E|--------------------------3-----------3-----------|


e|--------0-----------0-----------------------------|
B|-----0-----0--------------------3-----------3-----|
G|-----------------2-----2-----2-----2-----0-----0--|
D|--------------------------------------------------|
A|--3-----------3-----------2-----------2-----------|
E|--------------------------------------------------|


e|--------------------------------------------------|
B|--------1-----1--------1-----------0--3--0--------|
G|-----0-----0--------0--------0--2-----------2--0--|
D|-----------------4--------------------------------|
A|--0-----------------------------------------------|
E|--------------------------3-----------------------|


The second guitar plays the follwing

Verse 2, guitar2:
e|--------------------------------------------------|
B|-----5----5--7--8----10-------------8----7--5-----|
G|--7----------------------7----4--5-------------7--|
D|--------------------------------------------------|
A|--------------------------------------------------|
E|--------------------------------------------------|


e|--------------------------------------------------|
B|-----5--5--7--8--10-----5--7--8--------8--8--7--8-|
G|--7------------------7-----------4--5-------------|
D|--------------------------------------------------|
A|--------------------------------------------------|
E|--------------------------------------------------|

Here the piano sets in. The first guitar plays 
verse 1 twice, and then verse 2 twice. At the end of 
the second run-through of verse 2, the second guitar
plays small parts only, as tabbed here:

e|-----------------------------14--10-----------12--|
B|--12--10--8--7--------5----------------12--8------|
G|-------------------7------------------------------|
D|--------------------------------------------------|
A|--------------------------------------------------|
E|--------------------------------------------------|


e|--------------------------------------------------|
B|--------8--8--7--8--------------------------------|
G|--4--5--------------------------------------------|
D|--------------------------------------------------|
A|--------------------------------------------------|
E|--------------------------------------------------|


h: hammer on
p: pull off
s: slide
T: tap

Special thanks to my friend Pål Fuglset for
introducing me to this beautiful song by
Øystein Sevåg.

- Thomas Andre Teigland (thomas_teigland@yahoo.com)

- EOF -
     
Добавлено: 22.10.2013
Другие материалы по этой песне:
  • Аккорды и текст

Страница создана 22.10.2013
http://primanota.ru/sevag-oystein/rio-amazonas-chords.htm
Привет, Гость.
Предлагаем пройти революционный курс по гитаре.
Подарок от PrimaNota.Ru, забирай!