PrimaNota.ru - самый крупный в мире бесплатный архив песенных текстов, аккордов, табулатур и нот


Seu Jorge And Almaz - Errare Humanum Est - таба, видео

Регистрация Запомнить меня
Войти через:  Facebook Google Twitter Vk Yandex Mail.ru

Seu Jorge And Almaz - Errare Humanum Est - таба, видео

Печатать
Просмотров: 127
-----------------------------------------------------------------------------
Artist: Seu Jorge and Almaz
Album:  Seu Jorge and Almaz [2010]
Title:  Errare Humanum Est
-----------------------------------------------------------------------------

Tuning: Standard

Intro:
e|--------12+---------------------------------------|
B|---------------7+----5+---------------------------|
G|---------------------------7+---------------------|
D|--------------------------------------------------|
A|--------------------------------------------------|
E|--------------------------------------------------|

to 00.20:
e|---0------------0---------------------------------|
B|---0------------0---------------------------------|
G|---0------------0------------etc...---------------|
D|---2------------2---------------------------------|
A|---2------------2---------------------------------|
E|---0------------0---------------------------------|

to 00.38 w/lyric:
e|---0------------0------------2------------2-------1---------|
B|---0------------0------------2------------2-------1---------|
G|---0------------0------------2------------2-------1---------|
D|---2------------2------------4------------4-------3---------|
A|---2------------2------------4------------4-------3---------|
E|---0------------0------------2------------2-------1---------|

to 1.11:
e|-----------------------------------|
B|-----------------------------------|
G|-----------------------------------|
D|----------4-2-0--------------------|
A|--9/------------4-2----------------|
E|-----------------------------------|

Chorus:
e|---7------------0-------------------------------------------|
B|---7------------0-------------------------------------------|
G|---7------------0----------2s4-4---4s7-7---7s9-9------------|
D|---9------------2-------------------------------------------| x4
A|---9------------2-------------------------------------------|
E|---7------------0-------------------------------------------|

to 2.05:
e|---2-------1-------0-----|
B|---2-------1-------0-----|
G|---2-------1-------0-----|
D|---4-------3-------2-----| x2
A|---4-------3-------2-----|
E|---2-------1-------0-----|

to 2.22:
e|---0------7------12-------------2------9------14-------------|
B|---0------7------12-------------2------9------14-------------|
G|---0------7------12-------------2------9------14-------------|
D|---2-------------------x2-------4--------------------x2------| x2
A|---2----------------------------4----------------------------|
E|---0----------------------------2----------------------------|

to 3.50:
e|-----------------------------------------------------|
B|-----------------------------------------------------|
G|---11s14--14-14-------16s9---------------------------|
D|---x--x---x--x--------x--x---------------------------| x5
A|---9-s12--12-12-------14s7---------------------------|
E|-----------------------------------------------------|
and chords:
e|---7-------5-------0---------2------0-------------0-------1---0----------|
B|---7-------5-------0---------2------0-------------0-------1---0----------|
G|---7-------5-------0---------2------0-------------0-------1---0----------|
D|---9-------7-------2---x2----4------2-------------4-------3---2----------| 
A|---9-------7-------2---------4------2-------------4-------3---2----------|
E|---7-------5-------0---------2------0-------------2-------1---0----------|

************************************

| s   slide
| +   harmonic
| x   Mute note

************************************

Tabbed by: EA

seujorgealmaz.com
Добавлено: 03.08.2013
Другие материалы по этой песне:
  • Аккорды и текст

Страница создана 03.08.2013
http://primanota.ru/seu-jorge-and-almaz/errare-humanum-est-chords.htm
Привет, Гость.
Предлагаем пройти революционный курс по гитаре.
Подарок от PrimaNota.Ru, забирай!