PrimaNota.ru - самый крупный в мире бесплатный архив песенных текстов, аккордов, табулатур и нот


Setzer, Brian - Summertime Blues - аккорды и текст, таба, видео

Регистрация Запомнить меня
Войти через:  Facebook Google Twitter Vk Yandex Mail.ru

Setzer, Brian - Summertime Blues - аккорды и текст, таба, видео

Печатать
Просмотров: 248
Summertime Blues
Setzer, Brian
Brian Setzer - Summertime Blues - Originally by eddie cochran

brian setzer performed this in the movie 'La Bamba'

Tabbed by Andy Tate 


Intro 

E A B7 E E A B7 E 

verse 1
    E5                                           E  A  B7  E
I'm gonna raise a fuss, I'm gonna raise a holler
        E5                                              E  A  B7  E
About a workin' all summer just to try to earn a dollar
      A5                                      
Every time I call my baby, and try to get a date
             E  
My boss says, "No dice son, you gotta work late"
A5                                    
Sometimes I wonder what I'm a gonna do 
E 
But there ain't no cure for the summertime blues

verse2
        E5                                                   E  A  B7  E
Well my mom and pop told me, "Son you gotta make some money,
       E5                                             E  A  B7  E
If you want to use the car to go ridin' next Sunday"
       A5
Well I didn't go to work, told the boss I was sick 
E   
"Well you can't use the car 'cause you didn't work a lick"
A5
Sometimes I wonder what I'm gonna do
E  
But there ain't no cure for the summertime blues

Guitar solo 

well, lets rock it now 
           E       A     B7   E    E   A   B7  E

e-/0-0-0---------------------------
b-/5-5-5-0-2-0-2-0---------2-------
g-----------------1/4-4-4---------        E  A  B7  E
d---------------------------4b-2b-
a---------------------------------
e---------------------------------


e-/0-0-0---------------------------
b-/5-5-5-0-2-0-2-0---------2-------
g-----------------1/4-4-4---------        E  A  B7  E
d---------------------------4b-2b-
a---------------------------------
e---------------------------------

e-/5-5-5-5-5-5-5-5--5--5--/7-7-7-7-7-7--7-7-7--/5-5-5-5-5-5-5-5--5--5
b-/5-5-7-5-5-5-5-7b-7b-5--/8-8-9-8-8-9b-8-9-8--/5-5-7-5-5-5-5-7b-7b-5
g----------6--------------------------------------------6------------
d--------------------------------------------------------------------
a--------------------------------------------------------------------
e--------------------------------------------------------------------

e-/0-0-0---------------------------
b-/5-5-5-0-2-0-2-0---------2-------
g-----------------1/4-4-4---------        E  A  B7  E   E  A  B7  E
d---------------------------4b-0h2
a---------------------------------
e---------------------------------

Verse 3
    E5                                               E  A  B7  E
I'm gonna take two weeks, gonna have a fine vacation
          E5                                    E  A  B7  E
I'm gonna take my problem to the United Nations
       A5                                       
Well I called my congressman and he said quote:
E
"I'd like to help you son but you're too young to vote"
A5
Sometimes I wonder what I'm a gonna do
E 
But there ain't no cure for the summertime blues

E  A  B7  E  E  A  B7  E


         E       A            B7         E            E       A            B7         E
no there aint no cure for the summertime blues, there aint no cure for the summertime blues
           E       A            B7         E               E       A            B7         E
said there aint no cure for the summertime blues, no there aint no cure for the summertime blues

E  A  B7 E   E6

Добавлено: 04.06.2016
Другие материалы по этой песне:
  • Аккорды и текст

Страница создана 15.06.2013
http://primanota.ru/setzer-brian/summertime-blues-chords.htm
Привет, Гость.
Предлагаем пройти революционный курс по гитаре.
Подарок от PrimaNota.Ru, забирай!