PrimaNota.ru - самый крупный в мире бесплатный архив песенных текстов, аккордов, табулатур и нот


Setzer, Brian - I Wont Stand In Your Way - таба, видео

Регистрация Запомнить меня
Войти через:  Facebook Google Twitter Vk Yandex Mail.ru

Setzer, Brian - I Wont Stand In Your Way - таба, видео

Печатать
Просмотров: 92
Уроки эстрадного вокала в Санкт-Петербурге
Song:   "I won't stand in your way"
Artist: Brian Setzer Orchestra
Album:  The ultimate collection - disk 2

Transcribed/Tabbed by Frank van Rens (frank_van_rens@hotmail.com)


Transcribed for a normal guitar (E) instead of bariton guitar (C)

    C
E---0--------------------------3---3-3---3---3-------3---3-3---3----
B---1--------------------------5---5-5---5---5-------5---5-5---4----
G---0---------2--2----5--------5---5-5---5---5-------4---4-4---4----
D---2---------1--1----4--------3---3-3---3---3-------3---3-3---3----
A---3--------------------------5---------------------4---------4----
E------4-3-2--2--2--0-5----0---3---------------3-3-3-3---------3----

E---0~~~~~~--------------0------------------1-----1---1---1---1---
B---1~1~~~~--------------1---1-------1------1-----3---1---1---1---
G---0~0~~~~--------------0-2-----2/3--------2-----2---2---1---1---
D---2~2~~~~----------------2---2-2/3--------3---3-3---3---3---3---
A---3-3-2h3-----------1---------------------3---------------------
E-------------0---3-----------------------------------------------

E----------------------0----------0-----------0---------0---0-0-----
B----------6-6-------1---1------1---1-------1---1-----1---1---------
G----5-5-5-5-5-----0-------0--0-----------0-------0---2-------------
D----6-6-6-6-6------------------------------------------------------
A----5-5-5-5-5-0-3-----------2----------0---------------------------
E---/6-6-6-6-6------------------------0-----------------------------

    F         Dm             Ab9            G9
E----------1---------------------------------------
B----------1--------3--------/4---/4---/4---3------
G---------------------2------/3---/3---/3---2------
D--------3--------0----------/4---/4---/4---3------
A------3--------0-------0----/3---/3---/3---2------
E--0-1--------1--------------/4---/4---/4---3------

E----------0----------0-----------0------------------------
B--------1---1------1---1-------1---1-------1-----1--------
G------0-------0--0-------0---0-------0---2-----2/3--------
D-----------------------------------------2---2-2/3--------
A----3-----------2----------1------------------------------
E----------------------------------------------------------

   F           Fm
E--1----1---1-------1-----6--------
B--1----3---1------1--5/6---6------
G--2----2---2----1------------5----
D--3--3-3---3--3------5/6-------6--
A--3-------------------------------
E----------------------------------

    C                       Am7
E----------0----------0-----------0-------0-0-0---
B--------1---1------1---1-------1---1-----1---1---
G------0-------0--0-------0---0-------0---2---2---
D-----------------------------------------2---2---
A--0-3-----------2----------0---------------------
E-------------------------------------------------

   F           Fm     C                     F
E------------1---------------0-----0-----0--1---1---1---1--------------
B----------1-----1-----------1-----1-----1--1---1---1---1---5/6-6-6-6--
G--2-------2-----------------0-----0-----0--2---2---2---2---4/5-5-5-5--
D--3--3----3-------1h2-------2---0---0-2----3---3---3---3---5/6-6-6-6--
A--3--3----------------3---3---3--------------------3-------4/5-5-5-5--
E--1--1----3---3----------------------------------0-1-------5/6-6-6-6--

    C         F Em Dm C                        D
E-------------------------------------------------------------------------
B--------1-----6-5-3-------1---------1-------------3-------------------3--
G------0---0---5-4-2-----0---0---------0-----1-2---2-------------------2--
D----2-------2-7-5-3---2-------2-0h2-----3-2-3-4---4---------------0---4--
A--3-----------------3-----------------------------------0-0h2-0----------
E----------------------------------------------------0h2---------2--------

                   Dm              G
E------------------1-----1---1--------------------
B--------------------3---------2---/3-3-3-3-3-3-4-
G----------------------2---------3-/4-4-4-4-4-4-4-
D----------------0-----------------/3-3-3-3-3-3-5-
A------0-0h2-0------------------------------------
E--0h2---------2----------------------------------

E----------0----------0-----------0------------------------
B--------1---1------1---1-------1---1-------1-------1------
G------0----------0-------0---0-------0---2-----2/3--------
D-----------------------------------------2---2-2/3--------
A----3---------0-2----------1------------------------------
E----------------------------------------------------------

   F      Fm                   C                         Am      F
E--1--1-1-1---1-1-1-1-3-1----------0-----------------0-----0---0---1---1---
B--1--3-1-1---1-1-1-1-1-1-1--------1---------1---------1-1---1-----1---1---
G--2--2-2-1---------------1-1------0-------0---0---------2---2---2-----2---
D--3--3-3-3-----------------3----2-------0-------0-------2---2---3-----3---
A--3---------------------------3-----0-2-----------0-----0---0---3---------
E----------------------------------------------------------------1-----3---

    C                                                            F
E--------------------------------------------------------------------------
B--/5\3-1--0-----1-----/5\3-0-1---1-/5-3-0-1-------1---/10-8-----6-----1---
G------------2-0----------------3----------------3-----------7-5-5---2-----
D--/3\3-2--0-----2-----/5\3-0-2-----/5-3-0-2---------2--10-----5-----------
A------------3-2---3-3-----------------------3-3-------------7-----0-------
E--------------------------------------------------------------------------

                       Fm                C
E------------------1-----1---1-1-1-1---------------------------------------
B--3b(4)r(3)-1-------------1-1-1-1-1-----1---3/5-0-3/5/10------------------
G--------------1h2---2-1-----0-------1-0------------------7/9\7-7-5--------
D------------------------------3-1-0-2-0-2---3/5-0-3/5/10------------------
A------------------------------------------3--------------7/9\7------------
E--------------------------------------------------------------------------

E---1------------------8---10h12-10-8---10h12-10-8---8---------------0----
B---1-0-1-------/10-8-----------------9------------8---11-10p8-5-5\3-1-3--
G---2-0-2-/9--7--------9----------------------------------10---6-----0-3--
D-0-3-2-3-/10-9-/12-9--------------------------------------------5\3------
A-------------------------------------------------------------------------
E------------------------8~~~~~~~~~~~~~~~~~~~~~~~~~~----------------------
                        (thumb)

   F  Fm
E--1--1---------------
B--1--1---5/6-6-6-6---
G--2--1---4/5-5-5-5---
D--3--3---5/6-6-6-6---
A--3------4/5-5-5-5---
E---------5/6-6-6-6---

    C         F Em Dm C                        D
E-------------------------------------------------------------------------
B----------1-----6-5-3-------1---------1-----------3-------------------3--
G--------0---0---5-4-2-----0---0---------0-----1-2-2-------------------2--
D------2------2--7-5-3---2-------2-0h2-----3-2-3-4-4---------------0---4--
A--0-3-----------------3---------------------------------0-0h2-0----------
E----------------------------------------------------0h2---------2--------

                   Dm           G9
E------------------1-----1--1-------------------------
B--------------------3--------2---/3-3-3-3-3-3-4------
G----------------------2--------3-/4-4-4-4-4-4-4------
D----------------0----------------/5-5-5-5-5-5-5------
A------0-0h2-0----------------------------------------
E--0h2---------2--------------------------------------

E--------------------------0----0---0-0-----------------1-----------------
B----------------------3/5----3-----1-------------------1---7\6--6---6-6--
G-----------------------------------0-------------------1-----------------
D------1-2-------------3/5--5-3---3-2---3-3-3-3-3-3-3-3---3-7\6----6------
A--3-3-----3-3-3-1---3------------------3-3-5-5-6-6-5-5-------------------
E--3-3-----3-3-----3----------------------------------------7\6-----------

    C                       Am7                   F  Fm Dm F/G C
E----------0----------0-----------0-------0-0-0---1--1--1--1---0-----
B--------1---1------1---1-------1---1-----1---1---1--1--3--1---1-----
G------0-------0--0-------0---0-------0---2---2---2--1--2--2---0-----
D-----------------------------------------2---2---3--3--0--3---2-----
A--0-3-----------2----------0---------------------3------------3-----
E----------------------------------------------------------3---------


          I.......  I've got a low-down dirty feeling
          That I've been cheated on and lied to
          If it's wrong, then it's wrong
          We broke up for so long
          Why don't we have that magic anymore?

          I've got a strange, sneaking suspicion
          That it's been goin on for sometime now
          Something shines in your eyes
          Something stirs deep inside
          I won't stand in your way anymore

          You say that I'm just a little boy
          Who's easily lead astray
          Where are you, that same little girl
          who always gets her way

          I've got a strange, sneaking suspicion
          That its been goin on for sometime now
          Something shines in your eyes
          Something stirs deep inside
          I won't stand in your way anymore

          Solo:

          You say that I'm just a little boy
          Who's easily lead astray
          Where are you, that same little girl
          Who always gets her way

          I....... I've got a low-down dirty feeling
          That I've been cheated on and lied to
          If it's wrong, then it's wrong
          We broke up for so long

          I won't stand in your way
          I won't stand in your way
          I won't stand in your way   anymore

_________________________________________________________________
     
Добавлено: 04.09.2013
Другие материалы по этой песне:
  • Аккорды и текст

Страница создана 04.09.2013
http://primanota.ru/setzer-brian/i-wont-stand-in-your-way-chords.htm
Привет, Гость.
Предлагаем пройти революционный курс по гитаре.
Подарок от PrimaNota.Ru, забирай!