PrimaNota.ru - самый крупный в мире бесплатный архив песенных текстов, аккордов, табулатур и нот


Setzer, Brian - Hot Rod Girl - текст песни, таба, видео

Регистрация Запомнить меня
Войти через:  Facebook Google Twitter Vk Yandex Mail.ru

Setzer, Brian - Hot Rod Girl - текст песни, таба, видео

Печатать
Просмотров: 101
Subject: s/setzer_brian/hot_rod_girl.tab
Song:   "Hot Rod Girl"
Artist: Brian Setzer Orchestra
Album:  Ignition

Transcribed/Tabbed by Frank van Rens (frank_van_rens@hotmail.com)
(Many thanks to Nick S.L. who did almost all the work!)

  C
E-3-------3----------3-------3---------------------------------------------
B-5-------5----------5-------5---------------------------------------------
G---4b(5)---4b(5)------4b(5)---4b(5)---------------------------------------
D--------------------------------------------------------------------------
A--------------------------------------------------------------------------
E--------------------------------------------------------------------------

  C       C#      D       D#      E
E-3-------4-------5-------6-------7----------------------------------------
B-5-------6-------7-------8-------9----------------------------------------
G---4b(5)---5b(6)---6b(7)---7b(8)---8b(9)----------------------------------
D--------------------------------------------------------------------------
A--------------------------------------------------------------------------
E--------------------------------------------------------------------------

    C
E--------------------------------------------------------------------------
B-7/8----7-10p8----7-10p8----7-10p8----8-----------------------------------
G-7/8----7-10p8----7-10p8----7-10p8----8-----------------------------------
D-----10--------10--------10--------10---10--------------------------------
A--------------------------------------------------------------------------
E--------------------------------------------------------------------------

  Bb                C
E-------------------------------------------9------------------------------
B---------8-6-------11-9-------11-9---------9------------------------------
G-6h7p6h7-8-6h7-----11-9h10----11-9h10p9h10--------------------------------
D---------------8-----------11---------------------------------------------
A--------------------------------------------------------------------------
E--------------------------------------------------------------------------

   G                 F
E--------------------------------------------------------------------------
B--3-----5---3---5---1-----3-1-----8---7---6---3---------------------------
G--3h4---5---4---5---1h2---3-1h2---7---6---5---4---------------------------
D------5---5---5---5-----3---------7---5-------3---------------------------
A------------------------------------------5-------------------------------
E----------------------------------6---5---4---3---------------------------


E--0--x-------x-------x-------x--------------------------------------------
B--1--x-------x-------x-------x--------------------------------------------
G--0--x-9-8---x-8-7---x-7-6---x-6------------------------------------------
D--2--x-8-7---x-7-6---x-6-5---x-5------------------------------------------
A--3-----------------------------------------------------------------------
E-------8-8-----8-6-----6-6-----6------------------------------------------


   F
E--------------------------------------------------------------------------
B--------------------------------------------------------------------------
G--------------------------------------------------------------------------
D----3---3---3---3---3---3---3---3-----------------------------------------
A--3---5---3---5---3---5---3---5-------------------------------------------
E--------------------------------------------------------------------------

  Bb                      C
E--------------------------------------------------------------------------
B--------------------------------------------------------------------------
G--------------------------------------------------------------------------
D--------------------------------------------------------------------------
A--8--8-10--8--8--8-10--8-10-10-12-10-10-10-12-10--------------------------
E--6--6--6--6--6--6--6--6--8--8--8--8--8--8--8--8--------------------------


  1st time                2nd time
E-------------------    E-------------------
B----8---7---6---3--    B----6---5---4---3--
G----7---6---5---4--    G----7---6---5---4--
D----7---5-------3--    D----7---5---5---3--
A------------5------    A-------------------
E----6---5---4---3--    E-------------------


E--8-----8---------8-----8---------7-----7---------7-----7-----------------
B--6-6-------6---6---6-------6---6-7-7-------7---7---7-------7---7---------
G--8---8-------8-------8-------8---7---7-------7-------7-------7-----------
D--------------------------------------------------------------------------
A--------------------------------------------------------------------------
E--------------------------------------------------------------------------

E--------6---------6-----6-----------------------3-------------------------
B------6-----6---6---6-------6---6-----5---5-----3---4---4-----------------
G----6---------6-------6-------6-------5---5-----4---4---4-----------------
D--5---------------------------------4-----------5---5---5-----------------
A----------------------------------5---------------------------------------
E--------------------------------------------------------------------------

solo

E--------8-----------------------------------------------------------------
B------8---11-10-8---------------------------------------------------------
G--8-9-------------8-9-------------7-8P7-----------------------------------
D----------------------10-----7-10-------10-8-7-6--------------------------
A-------------------------9\8----------------------------------------------
E--------------------------------------------------------------------------


E---8-7-6-----------8-8/11~~~~~-------8---11---11---8----------------------
B---8-----6-9-6-8-9--------------8h10-----10---10---8--8-8-----------------
G---7--------------------------------------------------8-8-----------------
D----------------------------------------------------------10--------------
A--------------------------------------------------------------------------
E--------------------------------------------------------------------------

E--------------------------------------------------------------------------
B---------------------8---------8---------8-11p10p8------------------------
G---(11)r10-8-10b(12)---10b(12)---10b(12)-----------8-9--------------------
D-------------------------------------------------------10-8---------------
A------------------------------------------------------------10\-----------
E--------------------------------------------------------------------------

   G                    F
E--------------------------------------------------------------------------
B--3-----5---3-------5---1-----3-1--------8---------7-6---------4----------
G--3h4---5---3h4p3h4-5---1h2---3-1h2--------7-----6-----5-----5------------
D----------------------------3-------3--------7-6---------5-4--------------
A--------------------------------------------------------------------------
E--------------------------------------------------------------------------

                                                        whammy
E--4/8-8-8--8-8-8-8-8-8-6-6-6--6---8-7-8-10---13---13---13\/---------------
B--4/8-8-8------7-7-7-7-6-6-6--6---8-7-8-10---10---10---10\/---------------
G--3/7-7-7--8-8-8-8-8-8-7-7-7--6---8-7-8-10---12---12---12\/---------------
D--4/8-8-8--8-8---------6-6-6--5--------------13---13---13\/---------------
A--------------------------------------------------------------------------
E--------------------------------------------------------------------------


E--6-6-6-5/6-6-----6-----8---8---8-8-8-------------------------------------
B--6-6-6-5/6-6-----6-----8---8---8-8-8-------------------------------------
G--7-7-7-6/7---6h7---6h7-----9---9-9-9-------------------------------------
D--------------------------------------------------------------------------
A--------------------------------------------------------------------------
E--------------------------------------------------------------------------

   G                 F
E--------------------------------------------------------------------------
B--3-----5---3-------1-----3--1-------6---5---4---3------------------------
G--3h4---5---3h4-----1h2---3--1h2-----7---6---5---4------------------------
D------5---5-----5-------3---3----3---7---5---5---3------------------------
A--------------------------------------------------------------------------
E--------------------------------------------------------------------------

_________________________________________________________________
     
Добавлено: 02.06.2013
Другие материалы по этой песне:
  • Аккорды и текст

Страница создана 02.06.2013
http://primanota.ru/setzer-brian/hot-rod-girl-chords.htm
Привет, Гость.
Предлагаем пройти революционный курс по гитаре.
Подарок от PrimaNota.Ru, забирай!