PrimaNota.ru - самый крупный в мире бесплатный архив песенных текстов, аккордов, табулатур и нот


Setzer, Brian - Every Tear That Falls - текст песни, бас-таба, видео

Регистрация Запомнить меня
Войти через:  Facebook Google Twitter Vk Yandex Mail.ru

Setzer, Brian - Every Tear That Falls - текст песни, бас-таба, видео

Печатать
Просмотров: 100
Уроки эстрадного вокала в Санкт-Петербурге


Every Tear That Falls.btab
Brian Setzer
TablEdited by Poppamies
Tuning : E A D G 	Time Signature: 4/4

 tempo 126       |       |        |       |       |       |
|--------------------------------|--------------------------------|
|--------------------------------|2-----------2---2---2---2---2---|
|--------------------------------|--------------------------------|
|--------------------------------|--------------------------------|

 |       |       |       |        |       |       |       |
|--------------------------------|--------------------------------|
|2---2---2---2---2---2---2---2---|--------------------------------|
|--------------------------------|4---4---4---4---4---4---4---4---|
|--------------------------------|--------------------------------|

 |       |       |       |        |       |       |       |
|--------------------------------|--------------------------------|
|--------------------------------|--------------------------------|
|4---4---4---4---4---4---4---4---|0-------0---0---0---0---0---0---|
|--------------------------------|--------------------------------|

 |       |       |       |        |       |       |       |
|--------------------------------|--------------------------------|
|--------------------------------|--------------------------------|
|0---0---0---0---0---0---0---0---|--------------------------------|
|--------------------------------|2---2---2---2---2---2---2---2---|

 |       |       |       |        |       |       |       |
|--------------------------------|--------------------------------|
|--------------------------------|--------------------------------|
|0---0---0---0---0---0---0---0---|2-----------2---2-------2-------|
|--------------------------------|--------------------------------|

 |       |       |       |        |       |       |       |
|--------------------------------|--------------------------------|
|--------------------------------|2-----------2---2p--0-----------|
|0-----------0---0-------0-------|------------------------0-------|
|--------------------------------|--------------------------------|

 |       |       |       |        |       |       |       |
|--------------------------------|--------------------------------|
|--------------------------------|--------------------------------|
|----------------------------0---|2-----------2---2-------2-------|
|0-----------0---0-------4-------|--------------------------------|

 |       |       |       |        |       |       |       |
|--------------------------------|--------------------------------|
|--------------------------------|--------------------------------|
|0-----------0---0-------0-------|------------------------0-------|
|--------------------------------|0-----------0---0---------------|

 |       |       |       |        |       |       |       |
|--------------------------------|--------------------------------|
|--------------------------------|--------------------------------|
|----------------------------0---|4-----------4---4-------4-------|
|0-----------0---0-------4-------|--------------------------------|

 |       |       |       |        |       |       |       |
|--------------------------------|--------------------------------|
|--------------------------------|--------------------------------|
|--------------------------------|--------------------------------|
|4-----------4---4-------4-------|--------------------------------|

Transcribe  6.0 transcription http://www.seventhstring.demon.co.uk/
Created with TablEdit http://www.tabledit.com/
http://www.geocities.com/jani_bjorklund/janis.html

Добавлено: 24.10.2013
Другие материалы по этой песне:
  • Аккорды и текст

Страница создана 03.10.2013
http://primanota.ru/setzer-brian/every-tear-that-falls-chords.htm
Привет, Гость.
Предлагаем пройти революционный курс по гитаре.
Подарок от PrimaNota.Ru, забирай!