PrimaNota.ru - самый крупный в мире бесплатный архив песенных текстов, аккордов, табулатур и нот


Settler Project - Le - таба, видео

Регистрация Запомнить меня
Войти через:  Facebook Google Twitter Vk Yandex Mail.ru

Settler Project - Le - таба, видео

Печатать
Просмотров: 85
melody / bassline

Tabs written out of a midi file by predator17. [www.predator17.altervista.org]
I'm sure it's correct, but if you have any suggestions email me: qs.flaffiii@googlemail.com


It should be played with something around 120bpm


Legend:
~ = let ring


e|--------|--------|--------|--------||--------|--------|--------|--------|
b|----4~4~|--------|2~2~4~--|2~0~----||--------|--------|4~4~2~2~|4~~~----|
G|1~~~----|1~------|--------|--------||----1~1~|----1~1~|--------|--------|
D|--------|--------|--------|--------||2~~~----|--------|--------|--------|
A|--------|--------|--------|--------||--------|--------|--------|--------|
E|--------|--------|--------|--------||--------|--------|--------|--------|
                                                                          |
                                                                          |
                                                                          |
G|--------|--------|--------|--------||--------|--------|--------|--------|
D|--------|--------|--------|--------||--------|--------|--------|--------|
A|--------|--------|--------|--------||--------|--------|--------|--------|
E|4~~~----|4~~~----|4~~~----|4~~~----||0~~~----|0~~~----|0~~~----|0~~~----|



e|----2~~~|--------|--------|--------||--------|--------|--------|--------|
b|0~~~----|4~~~----|2~--2~--|4~~~----||0-0-----|4-4-2-2-|----2~~~|4~~~0~~~|
G|--------|--------|--------|--------||--------|--------|--------|--------|
D|--------|--------|--------|--------||--------|--------|--------|--------|
A|--------|--------|--------|--------||--------|--------|--------|--------|
E|--------|--------|--------|--------||--------|--------|--------|--------|
                                                                          |
                                                                          |
                                                                          |
G|--------|--------|--------|--------||--------|--------|--------|--------|
D|--------|--------|--------|--------||--------|--------|--------|--------|
A|2~~~----|2~~~----|2~~~----|2~~~----||--------|--------|--------|--------|
E|--------|--------|--------|--------||2~~~----|2~~~----|2~~~----|2~~~----|

repeat this 4x
Добавлено: 16.11.2013
Другие материалы по этой песне:
  • Аккорды и текст

Страница создана 16.11.2013
http://primanota.ru/settler-project/le-chords.htm
Привет, Гость.
Предлагаем пройти революционный курс по гитаре.
Подарок от PrimaNota.Ru, забирай!