PrimaNota.ru - самый крупный в мире бесплатный архив песенных текстов, аккордов, табулатур и нот


Settle The Sky - Cheyenne - таба, видео

Регистрация Запомнить меня
Войти через:  Facebook Google Twitter Vk Yandex Mail.ru

Settle The Sky - Cheyenne - таба, видео

Печатать
Просмотров: 83
Cheyenne
Settle the Sky
http://www.myspace.com/settlethesky



	0:23 – 0:38

|4--4----------------444-------------4----77------|
|3--3----------------333-------------3----66------|
|-------------------------------------------------|
|-------------------------------------------------|
|-00—00---00--000000------00—-000000--------------|
|-00—00---00--000000------00—-000000--------------|

|-------------444------------4----77--------|
|-------------333------------3----66--------|
|-------------------------------------------|
|-------------------------------------------|
|-00--000000------00--000000----------------|
|-00--000000------00--000000----------------|

	0:39 – 1:10

|---------------------------------------------------444-------------|
|---------------------------------------------------333-------------|
|-------------------------------------------------------------------|
|-------------------------------------------------------------------|->
|-777777777777777-999999999999999------00---000000-------00—-000000-| 
|-777777777777777-999999999999999------00---000000-------00--000000-|

|-4----77------------------------|
|-3----66------------------------|
|--------------------------------|   x2
|--------------------------------|
|--------------------------------|
|--------------------------------|

	1:11 - 1:37  (on the last time, let it ring at the end.)
|--------------------------------------------|
|--------------------------------------------|
|--------------------------------------------|
|--------------------------------------------| x8 
|---------------000000000000-----------------|
|-7p-0-5p-0-3p--000000000000-----------------|

		Techno stuff.
	
	1:52 – 2:04 (let them all ring)
|----------------------------------------|
|----------------------------------------|
|----------------------------------------|
|----------------------------------------|
|-0-9-5-0-9-11--0-9-5-0-9-11-------------|
|-0-9-5-0-9-11--0-9-5-0-9-11-------------|
I COULDN'T QUIET FIGURE OUT THIS PART CORRECTLY =/


	


	       2:48 – 3:14
|---------------------------------------|
|---------5-5---5-----------------------|
|-----5---------------------------------| x4
|-3-3---3-----3-------------------------|
|---------------------------------------|
|---------------------------------------|

|---------------------------------------|
|---------5-5---5-----------------------|
|-----5---------------------------------| x4
|-0-0---0-----0-------------------------|
|---------------------------------------|
|---------------------------------------|

REPEAT THIS TWO TIMES


	3:15 - 3:41 (figure out the strumming pattern)
|------------------------------------------|
|------------------------------------------|
|------------------------------------------|
|------------------------------------------|
|-9-11---7-000000-5-0000000--0-------------|
|-9-11---7-000000-5-0000000--0-------------|

Drum role.

THIS COULD SCARE YOU! OH!
	
	3:51 – 4:05
|---------------------------------------|
|---------------------------------------|
|---------------------------------------| x2
|---------------------------------------|
|-00-000-000000-00-00--00-000-000000----|
|-00-000-000000-00-00--00-000-000000----|


	4:04 - End
|--------------------------------------------|
|--------------------------------------------|
|--------------------------------------------| x2
|--------------------------------------------|
|-00-000-0000-4-3-2-1--00-000-0000-1-2-3-4---|
|-00-000-0000-4-3-2-1--00-000-0000-1-2-3-4---|
Добавлено: 19.06.2012
Другие материалы по этой песне:

Страница создана 14.05.2012
http://primanota.ru/settle-the-sky/cheyenne-chords.htm
Привет, Гость.
Предлагаем пройти революционный курс по гитаре.
Подарок от PrimaNota.Ru, забирай!