PrimaNota.ru - самый крупный в мире бесплатный архив песенных текстов, аккордов, табулатур и нот


Seth Sentry - Train Catcher - таба, видео

Регистрация Запомнить меня
Войти через:  Facebook Google Twitter Vk Yandex Mail.ru

Seth Sentry - Train Catcher - таба, видео

Печатать
Просмотров: 49
-------------------------------------------------------------------------------
                             Train Catcher - Seth Sentry
-------------------------------------------------------------------------------
Tabbed by: Matt Roberts
E-mail: mattroberts1235@gmail.com

Tuning: Standard (EADGBe)

Play throughout entire song. 

    C#5            B5              F#add4/A#      A
e|-----------------------------------------------------------------------|
B|-----------------------------------------------------------------------|
G|--------13------------11-----------11------------6---------------------|
D|-------11------------9------------9------------7-----------------------|
A|------11------------9------------9------------7------------------------|
E|--9----------9--7----------7--6----------6--5---------7----------------|




No piano, no problem
Добавлено: 04.05.2016
Другие материалы по этой песне:
  • Аккорды и текст

Страница создана 04.05.2016
http://primanota.ru/seth-sentry/train-catcher-chords.htm
Привет, Гость.
Предлагаем пройти революционный курс по гитаре.
Подарок от PrimaNota.Ru, забирай!