PrimaNota.ru - самый крупный в мире бесплатный архив песенных текстов, аккордов, табулатур и нот


Seth Sentry - Run - таба, видео

Регистрация Запомнить меня
Войти через:  Facebook Google Twitter Vk Yandex Mail.ru

Seth Sentry - Run - таба, видео

Печатать
Просмотров: 70
-------------------------------------------------------------------------------
                             RUN - Seth Sentry
-------------------------------------------------------------------------------
Tabbed by: Matt Roberts
E-mail: mattroberts1235@gmail.com

Pretty easy riff that repeats most of the song

Tuning: Standard 

e|----------------------77--6-----------------------------|
B|--6--7--6--7--9--------------7--------------------------|
G|-------------------------------6------------------------|
D|--------------------------------6-----------------------|
A|--------------------------------------------------------|
E|--------------------------------------------------------|

Добавлено: 02.01.2016
Вам также может быть интересно:
Другие материалы по этой песне:
  • Аккорды и текст

Страница создана 02.01.2016
http://primanota.ru/seth-sentry/run-chords.htm
Привет, Гость.
Предлагаем пройти революционный курс по гитаре.
Подарок от PrimaNota.Ru, забирай!