PrimaNota.ru - самый крупный в мире бесплатный архив песенных текстов, аккордов, табулатур и нот


Seth Macfarlane - American Dad Theme - таба, видео

Регистрация Запомнить меня
Войти через:  Facebook Google Twitter Vk Yandex Mail.ru

Seth Macfarlane - American Dad Theme - таба, видео

Печатать
Просмотров: 142
Guitar 1
e|------------------10-13---17-18---------------------------------|
B|--11-10-11----11--------20------20-18---------------------------|
G|-----------12---------------------------------------------------|
D|----------------------------------------------------------------|
A|----------------------------------------------------------------|
E|----------------------------------------------------------------|

Guitar 2
e|----------------------------------------------------------------|
B|----------------------------------------------------------------|
G|----------------------------------------------------------------|
D|--8--7--5--3----------------------------------------------------|
A|--------------------0-------------------------------------------|
E|--6--5--3--1--0-1-3---1-----------------------------------------|

Guitar 1 Good morning USA....
e|----------------------------------------------------------------|
B|----------------------------------------------------------------|
G|-----------------------7--------5-------3-2---------------------|
D|--------5-7-7~----8-10---10-8-7---8-7-5-----5-3~----------------|
A|--8-5-8----------8----------------------------------------------|
E|----------------------------------------------------------------|

Guitar 2
e|---------------------------------------------------13-13-13-13--|
B|----------------------------------6-5-4~------------------------|
G|----------------------------5-7--------------------10-10-10-10--|
D|--------------5---7---8---8-------------------------------------|
A|--7~------------6---8---8---------------------------------------|
E|----------------------------------------------------------------|

Guitar 1 The sun in the sky...
e|----------------------------------------------------------------|
B|----------------------------------------------------------------|
G|--------------------2-3-----------------------------------------|     
D|--------5-7-7\3-0-3---------------------------------------------|
A|--8-6-8---------------------------------------------------------|
E|----------------------------------------------------------------|

Guitar 2
e|--------------13-13-13-----------18-17-18-----------------------|
B|----------------------------------------------------------------|
G|--------------10-10-10-----------15-15-15-----------------------|
D|----------------------------------------------------------------|
A|--13-12------------------12-10----------------------------------|
E|----------------------------------------------------------------|

Guitar 1 And he's shining a salute...
e|----------------------------------------------------------------|
B|---------------3-1----------------------------------------------|
G|--3-2-0--0-2-3-----3-2-3-4-5~-----------------------------------|
D|--------4-------------------------------------------------------|
A|----------------------------------------------------------------|
E|----------------------------------------------------------------|

Guitar 2
e|----------------------13-13-13-13------------17-----------------|
B|-------------------------------------16-17-19-------------------|
G|----------------------10-10-10-10-------------------------------|
D|----------------------------------------------------------------|
A|---10-8-7-8-10-7------------------------------------------------|
E|----------------------------------------------------------------|

Guitar 1
e|----------------------------------------------------------------|
B|--------------6--8--9--10---------------------------------------|
G|--5--7--9--5----------------------------------------------------|
D|--------------3--5--6--7----------------------------------------|
A|--3--5--7--3----------------------------------------------------|
E|----------------------------------------------------------------|

e|--20-22-20-18--17-18-17-----------------------------------------|
B|-----------------------20--18-20-18-17-----------18-18-18-18+---|
G|---------------------------------------19-21-17-----------------|
D|----------------------------------------------------------------|
A|----------------------------------------------------------------|
E|----------------------------------------------------------------|

Guitar 1 Oh boy it's swell to say...
e|----------------------------------------------------------------|
B|-------------------3-3------------------------------------------|
G|---7-7-6-7-8~--5-5----3-----2-3----2-3-2-1-0--0-0---------------|     
D|--------------5---------3-5-----3-5-----------------------------|
A|--8-------------------------------------------------------------|
E|----------------------------------------------------------------|

Guitar 2
e|----------15-15-15-15--15-15-15-15---20-20-22-22--18~-----------|
B|-----------------------12-12-12-12------------------------------|
G|----------12-12-12-12--12-12-12-12---17-17-19-19----------------|
D|----------------------------------------------------------------|
A|----------------------------------------------------------------|
E|----------------------------------------------------------------|

Guitar 1 (choir) Good morning USA
e|----------------------------------------------------------------|
B|-----------------6----------------------------------------------|
G|-----5--5--7--7-------3-----------------------------------------|
D|--5--------------3----3-----------------------------------------|
A|-----3--3--5--5-------1-----------------------------------------|
E|--3-------------------------------------------------------------|

By shiriny xoxo
************************************

| /   slide up
| \   slide down
| h   hammer-on
| p   pull-off
| ~   vibrato
| +   harmonic
| x   Mute note
| b   Bend
| pb  Pre-bend
| br  Bend release
| pbr Pre-bend release
| brb Bend release bend

************************************
Добавлено: 09.06.2012
Другие материалы по этой песне:
  • Аккорды и текст

Страница создана 09.06.2012
http://primanota.ru/seth-macfarlane/american-dad-theme-chords.htm
Привет, Гость.
Предлагаем пройти революционный курс по гитаре.
Подарок от PrimaNota.Ru, забирай!