PrimaNota.ru - самый крупный в мире бесплатный архив песенных текстов, аккордов, табулатур и нот


Seth Lakeman - Solomon Browne - таба, видео

Регистрация Запомнить меня
Войти через:  Facebook Google Twitter Vk Yandex Mail.ru

Seth Lakeman - Solomon Browne - таба, видео

Печатать
Просмотров: 126
------------------------------------------
Solomon Browne - Seth Lakeman
------------------------------------------
Tabbed by: Laurence Wilson 17.09.09

Tuning: E A D G B E
Capo: 1st Fret

The guitar part from the recorded version of Solomon Browne.


E       O221OO
Aadd9   XO22OO
Bsus4   X244OO
C#m     X4665O


Intro:

    E                           Aadd9
E |-----------------------------------O----------|
B |--------------------------------------O-------|
G |---------------------------------2-------2----|
D |-2h4-2h4p2-4h6-4h6p4\2---2-----2------------2-|
A |-----------------------4---4-O----------------|
E |----------------------------------------------|

    E                           Bsus4
E |--------------------------------O-----O----|
B |--------------------------------O-----O----|
G |-----------------------------4-----4-----4-|
D |-2h4-2h4p2-4h6-4h6p4\2-----2-4-----4-----4-|
A |-----------------------4-2---2-------------|
E |-------------------------------------------|

    E                           Aadd9             E     Bsus4
E |-----------------------------------O-------------------|
B |--------------------------------------O----------------|
G |---------------------------------2-------2-----1--1----|
D |-2h4-2h4p2-4h6-4h6p4\2---2-----2------------2--2--2--4~|
A |-----------------------4---4-O-------------------------|
E |-------------------------------------------------------|


               Aadd9       Bsus4     E
At fair Mounts Bay on that Christmas week
                  Aadd9    Bsus4     E
Was such a raging storm no man could speak
              Aadd9                Bsus4 C#m
That lifeboat thundered through an angry sea
                   Aadd9          Bsus4 E
Was called Solomon Browne and her company

Aadd9                    E
Good courage it was called
Bsus4                   E
Our heroes brave and bold
Aadd9                    E
Good courage it was called
 Bsus4    E
Upon that night

The stricken coaster called the Union Star
Her maiden voyage she never thought that far
With Captain Moreton and his four man crew
A woman to save and her daughters two

Never had a lifeboat fought in vain
She could have made a dash for port but they tried again
All sixteen perished in that mighty wave
It tossed them overboard into a watery grave

Good courage it was called
Our heroes brave and bold
Good courage it was called
Upon that night

Now back at Penlee Point time stood still
Twelve young children cried for their fathers killed
A nation shed tears for years as the news went round
The constant courage of our Solomon Browne

Good courage it was called
Our heroes brave and bold
Good courage it was called
Upon that night

Good courage it was called
Our heroes brave and bold
Good courage it was called
Upon that night
Добавлено: 01.06.2012
Другие материалы по этой песне:
  • Аккорды и текст

Страница создана 01.06.2012
http://primanota.ru/seth-lakeman/solomon-browne-chords.htm
Привет, Гость.
Предлагаем пройти революционный курс по гитаре.
Подарок от PrimaNota.Ru, забирай!