PrimaNota.ru - самый крупный в мире бесплатный архив песенных текстов, аккордов, табулатур и нот


Set Your Goals - Start The Reactor - таба, видео

Регистрация Запомнить меня
Войти через:  Facebook Google Twitter Vk Yandex Mail.ru

Set Your Goals - Start The Reactor - таба, видео

Печатать
Просмотров: 83
-------------------------------------------------------------------------------
                             START THE REACTOR – Set Your Goals

-------------------------------------------------------------------------------
Tabbed by: rockett97    
Email: rockett97@hotmail.com

I tabbed both the lead and the rhythm guitar parts. 
Scroll further down for the lead parts. 

Tuning: Drop D (eBGDAD)

Intro

Rhythm Guitar

e|----------------------------------------------------------------|
B|----------------------------------------------------------------|
G|----------------------------------------------------------------|
D|-0---0-0-0--0-0-0----0-0-0-0-7---5---5-5-5--5-5-5---5-5-5-5-9-7-| (x2)
A|-0---0-0-0--0-0-0----0-0-0-0-7---5---5-5-5--5-5-5---5-5-5-5-9-7-|
D|-0---0-0-0--0-0-0----0-0-0-0-7---5---5-5-5--5-5-5---5-5-5-5-9-7-|
       x x    x x      x x x x         x x    x x     x x x x

Verse


1. “If you don't need a thing from me…”
2. “And I have never been afraid…”

e|----------------------------------------------------------------|
B|----------------------------------------------------------------|
G|----------------------------------------------------------------|
D|-0---0-0-0--0-0-0----0-0-0-0-7---5---5-5-5--5-5-5---5-5-5-5-9-7-| (x2)
A|-0---0-0-0--0-0-0----0-0-0-0-7---5---5-5-5--5-5-5---5-5-5-5-9-7-|
D|-0---0-0-0--0-0-0----0-0-0-0-7---5---5-5-5--5-5-5---5-5-5-5-9-7-|
       x x    x x      x x x x         x x    x x     x x x x


“It's just the way I feel”

e|---------------------------------|
B|---------------------------------|
G|---------------------------------|
D|-7---7-7-7-7-7-7-7-7-7-7-7-7-7-7-|
A|-7---7-7-7-7-7-7-7-7-7-7-7-7-7-7-|
D|-7---7-7-7-7-7-7-7-7-7-7-7-7-7-7-|
       x x x x x x x x x x x x x x

Chorus


“wanna break things, I wanna break rules”

e|-------------------------------------------------------------|
B|-------------------------------------------------------------|
G|-------------------------------------------------------------|
D|-9--9--9\7-7\5--5--5--5/7-7-7---9--9--9\7-7\5--5--5--5/7-7-7-|
A|-9--9—-9\7-7\5—-5--5--5/7-7-7---9--9--9\7-7\5--5--5--5/7-7-7-|
D|-9--9—-9\7-7\5—-5-—5-—5/7-7-7---9--9—-9\7-7\5—-5-—5-—5/7-7-7-|


“I do this because it's what I love”

e|---------------------------------------------------------------|
B|---------------------------------------------------------------|
G|---------------------------------------------------------------|
D|-9--9--9\7-7\5--5--5--5/7-7-7-7-7-7-7-7-7-7-7-7-7-7-7-7-9-12-9-|
A|-9--9—-9\7-7\5—-5--5--5/7-7-7-7-7-7-7-7-7-7-7-7-7-7-7-7-9-12-9-|
D|-9--9—-9\7-7\5—-5-—5-—5/7-7-7-7-7-7-7-7-7-7-7-7-7-7-7-7-9-12-9-|


“Whoa-oh!”

e|----------------------------------------------------------------|
B|----------------------------------------------------------------|
G|----------------------------------------------------------------|
D|-0---0-0-0--0-0-0----0-0-0-0-7---5---5-5-5--5-5-5---5-5-5-5-9-7-| (x2)
A|-0---0-0-0--0-0-0----0-0-0-0-7---5---5-5-5--5-5-5---5-5-5-5-9-7-|
D|-0---0-0-0--0-0-0----0-0-0-0-7---5---5-5-5--5-5-5---5-5-5-5-9-7-|
       x x    x x      x x x x         x x    x x     x x x x


Verse 


1. “Take back (what's yours!)”
2. “Looking back at, looking back at your life”

e|----------------------------------------------------------------|
B|----------------------------------------------------------------|
G|----------------------------------------------------------------|
D|-0---0-0-0--0-0-0----0-0-0-0-7---5---5-5-5--5-5-5---5-5-5-5-9-7-| (x2)
A|-0---0-0-0--0-0-0----0-0-0-0-7---5---5-5-5--5-5-5---5-5-5-5-9-7-|
D|-0---0-0-0--0-0-0----0-0-0-0-7---5---5-5-5--5-5-5---5-5-5-5-9-7-|
       x x    x x      x x x x         x x    x x     x x x x


“It's just the way I feel”

e|---------------------------------|
B|---------------------------------|
G|---------------------------------|
D|-7---7-7-7-7-7-7-7-7-7-7-7-7-7-7-|
A|-7---7-7-7-7-7-7-7-7-7-7-7-7-7-7-|
D|-7---7-7-7-7-7-7-7-7-7-7-7-7-7-7-|
       x x x x x x x x x x x x x x


Chorus


“I wanna break things, I wanna break rules”

e|-------------------------------------------------------------|
B|-------------------------------------------------------------|
G|-------------------------------------------------------------|
D|-9--9--9\7-7\5--5--5--5/7-7-7---9--9--9\7-7\5--5--5--5/7-7-7-|
A|-9--9—-9\7-7\5—-5--5--5/7-7-7---9--9--9\7-7\5--5--5--5/7-7-7-|
D|-9--9—-9\7-7\5—-5-—5-—5/7-7-7---9--9—-9\7-7\5—-5-—5-—5/7-7-7-|


“I do this because it's what I love”

e|--------------------------------------------------------------|
B|--------------------------------------------------------------|
G|--------------------------------------------------------------|
D|-9--9--9\7-7\5--5--5--5/7-7-7-7-7-7-7-7-7-7-7-7-7-7-7-7-7-7-7-|
A|-9--9—-9\7-7\5—-5--5--5/7-7-7-7-7-7-7-7-7-7-7-7-7-7-7-7-7-7-7-|
D|-9--9—-9\7-7\5—-5-—5-—5/7-7-7-7-7-7-7-7-7-7-7-7-7-7-7-7-7-7-7-|


1. “So we'll strive to do the best that we can”
2. “(Don't let!) Just remember what matters the most”

e|-----------------------------------------------------------------|
B|-----------------------------------------------------------------|
G|-----------------------------------------------------------------|
D|-5-5-5-5-5-5-5-5-5-5-5-5-5-5-5-5-9-9-9-9-9-9-9-9-9-9-9-9-9-9-9-9-| \
A|-5-5-5-5-5-5-5-5-5-5-5-5-5-5-5-5-9-9-9-9-9-9-9-9-9-9-9-9-9-9-9-9-|  \
D|-5-5-5-5-5-5-5-5-5-5-5-5-5-5-5-5-9-9-9-9-9-9-9-9-9-9-9-9-9-9-9-9-|   \
                                                                        (x2)
e|------------------------------------------------------------------|  /
B|------------------------------------------------------------------| /
G|------------------------------------------------------------------|/
D|-7-7-7-7-7-7-7-7-7-7-7-7-7-7-7-7-5-5-5-5-5-5-5-5-2--2-2-2-2-2-2-2-|
A|-7-7-7-7-7-7-7-7-7-7-7-7-7-7-7-7-5-5-5-5-5-5-5-5-2--2-2-2-2-2-2-2-|
D|-7-7-7-7-7-7-7-7-7-7-7-7-7-7-7-7-5-5-5-5-5-5-5-5-2--2-2-2-2-2-2-2-|
                                                      x x x x x x x 


“I wanna break things..”

e|-------------------------------------------------------------|
B|-------------------------------------------------------------|
G|-------------------------------------------------------------|
D|-9--9--9\7-7\5--5--5--5/7-7-7---9--9--9\7-7\5--5--5--5/7-7-7-|
A|-9--9—-9\7-7\5—-5--5--5/7-7-7---9--9--9\7-7\5--5--5--5/7-7-7-|
D|-9--9—-9\7-7\5—-5-—5-—5/7-7-7---9--9—-9\7-7\5—-5-—5-—5/7-7-7-|


“I do this because it's what I love”

e|--------------------------------------------------------------|
B|--------------------------------------------------------------|
G|--------------------------------------------------------------|
D|-9--9--9\7-7\5--5--5--5/7-7-7-7-7-7-7-7-7-7-7-7-7-7-7-7-7-7-7-|
A|-9--9—-9\7-7\5—-5--5--5/7-7-7-7-7-7-7-7-7-7-7-7-7-7-7-7-7-7-7-|
D|-9--9—-9\7-7\5—-5-—5-—5/7-7-7-7-7-7-7-7-7-7-7-7-7-7-7-7-7-7-7-|


“I always want to feel this young”

e|-----------------------------------------------------------------------|
B|-----------------------------------------------------------------------|
G|-----------------------------------------------------------------------|
D|-7---7-7-7-7-7-7-7-7-7-7-7-7-7-7-7-7--0-------0---0-0-0-0-0--0-0-0-0-0-|
A|-7---7-7-7-7-7-7-7-7-7-7-7-7-7-7-7-7--0-------0---0-0-0-0-0--0-0-0-0-0-| 
D|-7---7-7-7-7-7-7-7-7-7-7-7-7-7-7-7-7--0-------0---0-0-0-0-0--0-0-0-0-0-|
       x x x x x x x x x x x x x x x x              x x x x    x x x x 


Bridge/Breakdown


“So when you look back will you let go?”

e|---------------------------------------------------------------|
B|---------------------------------------------------------------|
G|---------------------------------------------------------------|
D|-0---0-0-0-0-0---0-0-0-0-0-0-0---0---0-0-0-0-0---0---9-(0-0)-7-|
A|-0---0-0-0-0-0---0-0-0-0-0-0-0---0---0-0-0-0-0---0---9-(0-0)-7-|
D|-0---0-0-0-0-0---0-0-0-0-0-0-0---0---0-0-0-0-0---0---9-(0-0)-7-|
       x x x x x   x x x x x x x   x   x x x x x   x      x x 

e|---------------------------------------------------------------|
B|---------------------------------------------------------------|
G|---------------------------------------------------------------|
D|-0---0-0-0-0-0---0-0-0-0-0-0-0---0---0-0-0-0-0---0---5-(0-0)-7-|
A|-0---0-0-0-0-0---0-0-0-0-0-0-0---0---0-0-0-0-0---0---5-(0-0)-7-|
D|-0---0-0-0-0-0---0-0-0-0-0-0-0---0---0-0-0-0-0---0---5-(0-0)-7-|
       x x x x x   x x x x x x x   x   x x x x x   x      x x


“Learn from the past or you will never know”

e|---------------------------------------------------------------|
B|---------------------------------------------------------------|
G|---------------------------------------------------------------|
D|-0---0-0-0-0-0---0-0-0-0-0-0-0---0---0-0-0-0-0---0---9-(0-0)-7-|
A|-0---0-0-0-0-0---0-0-0-0-0-0-0---0---0-0-0-0-0---0---9-(0-0)-7-|
D|-0---0-0-0-0-0---0-0-0-0-0-0-0---0---0-0-0-0-0---0---9-(0-0)-7-|
       x x x x x   x x x x x x x   x   x x x x x   x      x x 

e|---------------------------------------------------------------------|
B|---------------------------------------------------------------------|
G|---------------------------------------------------------------------|
D|-0---0-0-0-0-0---0-0-0-0-0-0-0---0---0-0-0-0-0---0---5-(0-0)-7--0--0-|
A|-0---0-0-0-0-0---0-0-0-0-0-0-0---0---0-0-0-0-0---0---5-(0-0)-7--0--0-|
D|-0---0-0-0-0-0---0-0-0-0-0-0-0---0---0-0-0-0-0---0---5-(0-0)-7--0--0-|
       x x x x x   x x x x x x x   x   x x x x x   x      x x     x  x


“So when you look back will you let go?”

e|---------------------------------------------------------------|
B|---------------------------------------------------------------|
G|---------------------------------------------------------------|
D|-0---0-0-0-0-0---0-0-0-0-0-0-0---0---0-0-0-0-0---0---9-(0-0)-7-|
A|-0---0-0-0-0-0---0-0-0-0-0-0-0---0---0-0-0-0-0---0---9-(0-0)-7-|
D|-0---0-0-0-0-0---0-0-0-0-0-0-0---0---0-0-0-0-0---0---9-(0-0)-7-|
       x x x x x   x x x x x x x   x   x x x x x   x      x x 

e|---------------------------------------------------------------|
B|---------------------------------------------------------------|
G|---------------------------------------------------------------|
D|-0---0-0-0-0-0---0-0-0-0-0-0-0---0---0-0-0-0-0---0---5-(0-0)-7-|
A|-0---0-0-0-0-0---0-0-0-0-0-0-0---0---0-0-0-0-0---0---5-(0-0)-7-|
D|-0---0-0-0-0-0---0-0-0-0-0-0-0---0---0-0-0-0-0---0---5-(0-0)-7-|
       x x x x x   x x x x x x x   x   x x x x x   x      x x


“Learn from the past or you will never know”

e|---------------------------------------------------------------|
B|---------------------------------------------------------------|
G|---------------------------------------------------------------|
D|-0---0-0-0-0-0---0-0-0-0-0-0-0---0---0-0-0-0-0---0---9-(0-0)-7-|
A|-0---0-0-0-0-0---0-0-0-0-0-0-0---0---0-0-0-0-0---0---9-(0-0)-7-|
D|-0---0-0-0-0-0---0-0-0-0-0-0-0---0---0-0-0-0-0---0---9-(0-0)-7-|
       x x x x x   x x x x x x x   x   x x x x x   x      x x 

e|------------------------------------------------------------------|
B|------------------------------------------------------------------|
G|------------------------------------------------------------------|
D|-0---0-0-0-0-0---0-0-0-0-0-0-0---0---0-0-0-0-0---0---5-(0-0)-7--0-|
A|-0---0-0-0-0-0---0-0-0-0-0-0-0---0---0-0-0-0-0---0---5-(0-0)-7--0-|
D|-0---0-0-0-0-0---0-0-0-0-0-0-0---0---0-0-0-0-0---0---5-(0-0)-7--0-|
       x x x x x   x x x x x x x   x   x x x x x   x      x x     x  


Lead Guitar


Intro


e|-----------------------------------------------------------------|
B|-----------------------------------------------------------------|
G|-----------------------------------------------------------------|
D|-7-7-7-7-7-7-7-7-7-7-7-7-7-7-9-9-7-7-7-7-7-7-7-7-7-7-7-9-9-7-7-7-|
A|-----------------------------------------------------------------|
D|-----------------------------------------------------------------|
   x x x x x x x x x x x x x x x x x x x x x x x x x x x x x x x x

e|---------------------------------------------------------------------7h9p7------7--10\-|
B|----------------------------------------------------------------------------10---------|
G|-7---7---7---7-7-7---7---7-/-9-/-11-\-9-\7-7---7---7---7-7-7---7--7--------------------|
D|-0---0---0---0-0-0---0---0---0---0----0--0-0---0---0---0-0-0---0--0--------------------|
A|---------------------------------------------------------------------------------------|
D|---------------------------------------------------------------------------------------|


Verse


1. “If you don't need a thing from me…”
2. “And I have never been afraid…”

e|----------------------------------------------------------------|
B|----------------------------------------------------------------|
G|----------------------------------------------------------------|
D|-0---0-0-0--0-0-0----0-0-0-0-7---5---5-5-5--5-5-5---5-5-5-5-9-7-| (x2)
A|-0---0-0-0--0-0-0----0-0-0-0-7---5---5-5-5--5-5-5---5-5-5-5-9-7-|
D|-0---0-0-0--0-0-0----0-0-0-0-7---5---5-5-5--5-5-5---5-5-5-5-9-7-|
       x x    x x      x x x x         x x    x x     x x x x


“It's just the way I feel”

e|------------------------------------|
B|------------------------------------|
G|-2-2-2-2/4-4-4-4/6-6-6-6/11\9\7/9\7-|
D|---------x-x-x-x-x-x-x-x-x--x-x-x-x-|
A|---------2-2-2-2/4-4-4-4/9-\7\5/7\5-|
D|------------------------------------|


Chorus


“I wanna break things, I wanna break rules”

e|-------------------------------------------------|
B|-------------------------------------------------|
G|-------14----14-------14-------14----12----11----|
D|-12-12----12----12-12----12-12----12----12----12-|
A|-------------------------------------------------|
D|-------------------------------------------------|
   x  x   x  x  x  x  x  x  x  x  x  x  x  x  x  x


“I don't do this to fit in, to feel cool”

e|-------------------------------------------------|
B|-------------------------------------14----15----|
G|-------14----14-------14-------14----------------|
D|-12-12----12----12-12----12-12----12----12----12-|
A|-------------------------------------------------|
D|-------------------------------------------------|
   x  x  x  x  x  x  x  x  x  x  x  x  x  x  x  x


“I do this because it's what I love”

e|----------------------------------------------------------------------------------------------|
B|----------------------------------------------------------------------------------------------|
G|-------14----14-------14-------14----12\11-------------14----14-------14-------14----14-------|
D|-12-12----12----12-12----12-12----12-------14-12-14-14----14----14-14----14-14----14----14-14-|
A|----------------------------------------------------------------------------------------------|
D|----------------------------------------------------------------------------------------------|
   x  x  x  x  x  x  x  x  x  x  x  x  x  x  x  x  x  x  x  x  x  x  x  x  x  x  x  x  x  x  x  x


Note: you should mute these notes, but be sure to not mute them too much..
you still want to hear the actual notes. 
(don't press the strings down too hard like in the main riff)


“Whoa-oh!”

e|--------------------------------------------------------------------------------|
B|--------------------------------------------------------------------------------|
G|-7---7---7---7-7-7---7---7-/-9-/-11-\-9-\7-7---7---7---7-7-7---7--7-\-4-\-2-2-2-|
D|-0---0---0---0-0-0---0---0---0---0----0--0-0---0---0---0-0-0---0--0-\-0-\-0-0-0-|
A|--------------------------------------------------------------------------------|
D|--------------------------------------------------------------------------------|


“Whoa-oh!”

e|---------------------------------------------------------------------7h9p7------7--10\-|
B|----------------------------------------------------------------------------10---------|
G|-7---7---7---7-7-7---7---7-/-9-/-11-\-9-\7-7---7---7---7-7-7---7--7--------------------|
D|-0---0---0---0-0-0---0---0---0---0----0--0-0---0---0---0-0-0---0--0--------------------|
A|---------------------------------------------------------------------------------------|
D|---------------------------------------------------------------------------------------|


Verse


1. “Take back (what's yours!)”
2. “Looking back at, looking back at your life”

e|----------------------------------------------------------------|
B|----------------------------------------------------------------|
G|----------------------------------------------------------------|
D|-0---0-0-0--0-0-0----0-0-0-0-7---5---5-5-5--5-5-5---5-5-5-5-9-7-| (x2)
A|-0---0-0-0--0-0-0----0-0-0-0-7---5---5-5-5--5-5-5---5-5-5-5-9-7-|
D|-0---0-0-0--0-0-0----0-0-0-0-7---5---5-5-5--5-5-5---5-5-5-5-9-7-|
       x x    x x      x x x x         x x    x x     x x x x


“It's just the way I feel”

e|------------------------------------|
B|------------------------------------|
G|-2-2-2-2/4-4-4-4/6-6-6-6/11\9\7/9\7-|
D|---------x-x-x-x-x-x-x-x-x--x-x-x-x-|
A|---------2-2-2-2/4-4-4-4/9-\7\5/7\5-|
D|------------------------------------|


Chorus


“I wanna break things, I wanna break rules”

e|-------------------------------------------------|
B|-------------------------------------------------|
G|-------14----14-------14-------14----12----11----|
D|-12-12----12----12-12----12-12----12----12----12-|
A|-------------------------------------------------|
D|-------------------------------------------------|
   x  x   x  x  x  x  x  x  x  x  x  x  x  x  x  x


“I don't do this to fit in, to feel cool”

e|-------------------------------------------------|
B|-------------------------------------14----15----|
G|-------14----14-------14-------14----------------|
D|-12-12----12----12-12----12-12----12----12----12-|
A|-------------------------------------------------|
D|-------------------------------------------------|
   x  x  x  x  x  x  x  x  x  x  x  x  x  x  x  


“I do this because it's what I love”

e|----------------------------------------------------------------------------------------------|
B|----------------------------------------------------------------------------------------------|
G|-------14----14-------14-------14----12\11-------------14----14-------14-------14----14-------|
D|-12-12----12----12-12----12-12----12-------14-12-14-14----14----14-14----14-14----14----14-14-|
A|----------------------------------------------------------------------------------------------|
D|----------------------------------------------------------------------------------------------|
   x  x  x  x  x  x  x  x  x  x  x  x  x  x  x  x  x  x  x  x  x  x  x  x  x  x  x  x  x  x  x  


Note: you should mute these notes, but be sure to not mute them too much..
you still want to hear the actual notes. 
(don't press the strings down too hard like in the main riff)


“So we'll strive to do the best that we can”

e|-------------------------------------------------------------------------|
B|-------------------------------------------------------------------------|
G|-7-7-7-7-7-7-7-7-7-7-7-7/11-11\9-9\7-7-7-7-7-7-7-7-7-7-7-7-7/11-11/14-14-|
D|-x-x-x-x-x-x-x-x-x-x-x-x-x--x--x-x-x-x-x-x-x-x-x-x-x-x-x-x-x-x--x--x--x--|
A|-5-5-5-5-5-5-5-5-5-5-5-5/9--9-\7-7\5-5-5-5-5-5-5-5-5-5-5-5-5/9--9-/12-12-|
D|-------------------------------------------------------------------------|


“Don't forget about the things that you said”

e|-----------------------------------------------------------------|
B|-----------------------------------------------------------------|
G|-9-9-9-9-9-9-9-9-9-9-9-9/12-12\11-11\7-7-7-7-7-7-7\4-4-4/6-6/7-7-|
D|-x-x-x-x-x-x-x-x-x-x-x-x-x--x--x--x--x-x-x-x-x-x-x-x-x-x-x-x-x-x-|
A|-7-7-7-7-7-7-7-7-7-7-7-7/10-10\9--9-\5-5-5-5-5-5-5\2-2-2/4-4/5-5-|
D|-----------------------------------------------------------------|


“(Don't let) Just remember what matters the most”

e|-14-14-14-12-12-12-10-10-10----------------------14-14-14-12-12-12-10-10-10----------------------|
B|----------------------------14-14-14-12-12-10-10----------------------------14-14-14-12-12-10-10-|
G|-------------------------------------------------------------------------------------------------|
D|-------------------------------------------------------------------------------------------------|
A|-------------------------------------------------------------------------------------------------|
D|-------------------------------------------------------------------------------------------------|


“There are reasons behind all the rules”

e|-12-12-12-10-10-10-------------------------------14-14-14-12-12-12-12----------------------|
B|-------------------14-14-14-12-12-12-10-10-12-12----------------------12-12-12-14-14-15-15-|
G|-------------------------------------------------------------------------------------------|
D|-------------------------------------------------------------------------------------------|
A|-------------------------------------------------------------------------------------------|
D|-------------------------------------------------------------------------------------------|


“I wanna break things, I wanna break rules”

e|-------------------------------------------------|
B|-------------------------------------------------|
G|-------14----14-------14-------14----12----11----|
D|-12-12----12----12-12----12-12----12----12----12-|
A|-------------------------------------------------|
D|-------------------------------------------------|
   x  x   x  x  x  x  x  x  x  x  x  x  x  x  x  x


“I don't do this to fit in, to feel cool”

e|-------------------------------------------------|
B|-------------------------------------14----15----|
G|-------14----14-------14-------14----------------|
D|-12-12----12----12-12----12-12----12----12----12-|
A|-------------------------------------------------|
D|-------------------------------------------------|
   x  x  x  x  x  x  x  x  x  x  x  x  x  x  x  


“I do this because it's what I love”

--------------------------------------------------------------------------------------------------|
--------------------------------------------------------------------------------------------------|
------14----14-------14-------14----12\11-------------14----14-------14-------14----14-12-11-12-11|
12-12----12----12-12----12-12----12-------14-12-14-14----14----14-14----14-14----14---------------|
--------------------------------------------------------------------------------------------------|
--------------------------------------------------------------------------------------------------|
   x  x  x  x  x  x  x  x  x  x  x  x  x  x  x  x  x  x  x  x  x  x  x  x  x  x  x  x   


“I always want to feel this young”

e|----------------------------------------------------------------------------------|
B|-------------------------------------15-14-12-14-15-------------------------------|
G|-------14-------14----14-------14-------------------------------------------------|
D|-12-12----12-12----12----12-12----12---------------------0---0-0-0-0-0--0-0-0-0-0-|
A|---------------------------------------------------------0---0-0-0-0-0--0-0-0-0-0-|
D|---------------------------------------------------------0---0-0-0-0-0--0-0-0-0-0-|
                                                               x x x x    x x x x

Bridge/Breakdown


“So when you look back will you let go?”

e|---------------------------------------------------------------|
B|---------------------------------------------------------------|
G|---------------------------------------------------------------|
D|-0---0-0-0-0-0---0-0-0-0-0-0-0---0---0-0-0-0-0---0---9-(0-0)-7-|
A|-0---0-0-0-0-0---0-0-0-0-0-0-0---0---0-0-0-0-0---0---9-(0-0)-7-|
D|-0---0-0-0-0-0---0-0-0-0-0-0-0---0---0-0-0-0-0---0---9-(0-0)-7-|
       x x x x x   x x x x x x x   x   x x x x x   x      x x 

e|---------------------------------------------------------------|
B|---------------------------------------------------------------|
G|---------------------------------------------------------------|
D|-0---0-0-0-0-0---0-0-0-0-0-0-0---0---0-0-0-0-0---0---5-(0-0)-7-|
A|-0---0-0-0-0-0---0-0-0-0-0-0-0---0---0-0-0-0-0---0---5-(0-0)-7-|
D|-0---0-0-0-0-0---0-0-0-0-0-0-0---0---0-0-0-0-0---0---5-(0-0)-7-|
       x x x x x   x x x x x x x   x   x x x x x   x      x x


“Learn from the past or you will never know”

e|---------------------------------------------------------------|
B|---------------------------------------------------------------|
G|---------------------------------------------------------------|
D|-0---0-0-0-0-0---0-0-0-0-0-0-0---0---0-0-0-0-0---0---9-(0-0)-7-|
A|-0---0-0-0-0-0---0-0-0-0-0-0-0---0---0-0-0-0-0---0---9-(0-0)-7-|
D|-0---0-0-0-0-0---0-0-0-0-0-0-0---0---0-0-0-0-0---0---9-(0-0)-7-|
       x x x x x   x x x x x x x   x   x x x x x   x      x x 

e|---------------------------------------------------------------------|
B|---------------------------------------------------------------------|
G|---------------------------------------------------------------------|
D|-0---0-0-0-0-0---0-0-0-0-0-0-0---0---0-0-0-0-0---0---5-(0-0)-7--0--0-|
A|-0---0-0-0-0-0---0-0-0-0-0-0-0---0---0-0-0-0-0---0---5-(0-0)-7--0--0-|
D|-0---0-0-0-0-0---0-0-0-0-0-0-0---0---0-0-0-0-0---0---5-(0-0)-7--0--0-|
       x x x x x   x x x x x x x   x   x x x x x   x      x x     x  x


“So when you look back will you let go?”

e|------------------------------------------------------------------------------|
B|------------------------------------------------------------------------------|
G|-7-7-7-7-7-7-7-7-7-7-7-/-9-9-/-11-\-9-9-\7-7-7-7-7-7-7-7-7-7-7\-4-4-\-2-2-2-2-|
D|-0-0-0-0-0-0-0-0-0-0-0---0-0---0----0-0--0-0-0-0-0-0-0-0-0-0-0--0-0---0-0-0-0-|
A|------------------------------------------------------------------------------|
D|------------------------------------------------------------------------------|


“Learn from the past or you will never know”

e|--------------------------------------------------------------------------------|
B|--------------------------------------------------------------------------------|
G|-7-7-7-7-7-7-7-7-7-7-7-/-9-9-/-11-\-9-9-\7-7-7-7-7-7-7-7-7-7-7-7-7-\-2-2-2-/-7\-|
D|-0-0-0-0-0-0-0-0-0-0-0---0-0---0----0-0--0-0-0-0-0-0-0-0-0-0-0-0-0---0-0-0---0\-|
A|--------------------------------------------------------------------------------|
D|--------------------------------------------------------------------------------|


For questions, just send me an email/comment on this tab.
Please RATE!

************************************

| /   slide up
| \   slide down
| h   hammer-on
| p   pull-off
| x   (Palm) mute 


************************************

Добавлено: 19.03.2012
Другие материалы по этой песне:
  • Аккорды и текст

Страница создана 19.03.2012
http://primanota.ru/set-your-goals/start-the-reactor-chords.htm
Привет, Гость.
Предлагаем пройти революционный курс по гитаре.
Подарок от PrimaNota.Ru, забирай!