PrimaNota.ru - самый крупный в мире бесплатный архив песенных текстов, аккордов, табулатур и нот


Set Your Goals - An Old Book Misread - таба, бас-таба, видео

Регистрация Запомнить меня
Войти через:  Facebook Google Twitter Vk Yandex Mail.ru

Set Your Goals - An Old Book Misread - таба, бас-таба, видео

Печатать
Просмотров: 147
-----------------------------------------------------------------------------
                     An Old Book Misread - Set Your Goals
-----------------------------------------------------------------------------

Tabbed by: x3ricxblink182

Email: x3ricxblink182

Tuning: Half-Step Down (Eb Ab Db Gb Bb Eb)


Intro:

Eb|----------------------------------------------------7*---|
Bb|---------------------------------------------------------|
Gb|---------------------------------------------------------|
Db|--------------------22-----------------------------------|
Ab|----222442244----444--4422----22442244-------------------|
Eb|-444----------000----------444--------000000000000-------| 

Eb|---------------------------------|
Bb|---------------------------------|
Gb|-----444-664466-----666-996644---|
Db|-666-444-664466-222-666-996644---|
Ab|-666-222-442244-222-444-774422---|
Eb|-444------------000--------------| 

Eb|--------------------------------|
Bb|--------------------------------|
Gb|-----444-664466-----------------|
Db|-666-444-664466-2222222222222---|
Ab|-666-222-442244-2222222222222---|
Eb|-444------------0000000000000---| 

Eb|----------------------------------------11h12p11p0----|
Bb|--12p99-12p99-14p9h12p9-7h9-12p99-12p99-----------12--|
Gb|------------------------------------------------------|
Db|------------------------------------------------------|
Ab|------------------------------------------------------|
Eb|------------------------------------------------------|

Eb|--------------------------------------------------------|
Bb|--12p99-12p99-14p9h12p9-7h9-9p00-7p00-4p0-4h5p4-\2p0~---|
Gb|--------------------------------------------------------|
Db|--------------------------------------------------------|
Ab|--------------------------------------------------------|
Eb|--------------------------------------------------------|



Verse 1:

Eb|-----|
Bb|--0--| *Keep strumming this open note until 0:49*
Gb|-----|
Db|-----|
Ab|-----|
Eb|-----|

Eb|------------------------------------------------------|
Bb|------------------------------------------------------|
Gb|--------------44-4-4----------------------------------|
Db|-22-2-26-6-6--44-4-4-4-4-6--22-2-26-6-6-44-4-44-6-4---|
Ab|-22-2-26-6-6--22-2-2-4-4-6--22-2-26-6-6-44-4-44-6-4---|
Eb|-00-0-04-4-4---------2-2-4--00-0-04-4-4-22-2-22-4-2---|

Eb|------------------------------------------------------|
Bb|------------------------------------------------------|
Gb|---------------44-4-4---------------------------------|
Db|-22-2-2-6-6-6--44-4-4-4-4-6--662-2-22-2-2-22-2-22-2---|
Ab|-22-2-2-6-6-6--22-2-2-4-4-6--662-2-22-2-2-22-2-22-2---|
Eb|-00-0-0-4-4-4---------2-2-4--440-0-00-0-0-00-0-00-0---|


Chorus:

Eb|-----------------------------------------|
Bb|-----------------------------------------|
Gb|-44444444-----------44444444-------------|
Db|-44444444-22222222--44444444-222222222---|
Ab|-22222222-22222222--22222222-222222222---|
Eb|----------00000000-----------000000000---|

Eb|------------------------------------------|
Bb|------------------------------------------|
Gb|---------------------444444444------------|
Db|--66666666-22222222--444444444-44444444---|
Ab|--66666666-22222222--222222222-44444444---|
Eb|--44444444-00000000------------22222222---|


Back to intro section:

Eb|---------------------------------|
Bb|---------------------------------|
Gb|-----444-664466-----666-996644---|
Db|-666-444-664466-222-666-996644---|
Ab|-666-222-442244-222-444-774422---|
Eb|-444------------000--------------| 

Eb|--------------------------------|
Bb|--------------------------------|
Gb|-----444-664466-----------------|
Db|-666-444-664466-2222222222222---|
Ab|-666-222-442244-2222222222222---|
Eb|-444------------0000000000000---| 


Verse 2:


Eb|----------------------------------------------------|
Bb|----------------------------------------------------|
Gb|--------------44-4-4--------------------------------|
Db|-22-2-26-6-6--44-4-4-4-4-6--22-2-26-6-6-44-4-44-4---|
Ab|-22-2-26-6-6--22-2-2-4-4-6--22-2-26-6-6-44-4-44-4---|
Eb|-00-0-04-4-4---------2-2-4--00-0-04-4-4-22-2-22-2---| x2

Eb|----------------------|
Bb|-000-2p00-5p4p00-2h4--| 
Gb|----------------------|
Db|----------------------|
Ab|----------------------|
Eb|----------------------| x4

Eb|----------------------------------------------|
Bb|----------------------------------------------|
Gb|----------44-4-4------------------------------|
Db|---6-6-6--44-4-4-4-4--62-2-22-2-2-22-2-22-2---|
Ab|---6-6-6--22-2-2-4-4--62-2-22-2-2-22-2-22-2---|
Eb|---4-4-4---------2-2--40-0-00-0-0-00-0-00-0---|


Chorus:

Eb|-----------------------------------------|
Bb|-----------------------------------------|
Gb|-44444444-----------44444444-------------|
Db|-44444444-22222222--44444444-222222222---|
Ab|-22222222-22222222--22222222-222222222---|
Eb|----------00000000-----------000000000---|

Eb|------------------------------------------|
Bb|------------------------------------------|
Gb|---------------------444444444------------|
Db|--66666666-22222222--444444444-44444444---|
Ab|--66666666-22222222--222222222-44444444---|
Eb|--44444444-00000000------------22222222---|


Back to intro section:

Eb|---------------------------------|
Bb|---------------------------------|
Gb|-----444-664466-----666-996644---|
Db|-666-444-664466-222-666-996644---|
Ab|-666-222-442244-222-444-774422---|
Eb|-444------------000--------------| 

Eb|--------------------------------|
Bb|--------------------------------|
Gb|-----444-664466-----------------|
Db|-666-444-664466-2222222222222---|
Ab|-666-222-442244-2222222222222---|
Eb|-444------------0000000000000---| 

Then the other intro section:

Eb|----------------------------------------11h12p11p0----|
Bb|--12p99-12p99-14p9h12p9-7h9-12p99-12p99-----------12--|
Gb|------------------------------------------------------|
Db|------------------------------------------------------|
Ab|------------------------------------------------------|
Eb|------------------------------------------------------|

Eb|-------------------------------------------------------|
Bb|--12p99-12p99-14p9h12p9-7h9-9p00-7p00-4p0-4h5p4-\2p0~--|
Gb|-------------------------------------------------------|
Db|-------------------------------------------------------|
Ab|-------------------------------------------------------|
Eb|-------------------------------------------------------|


Bridge:

“I'm taking it back…”

Eb|---------------------|
Bb|---------------------|
Gb|----4----------------|
Db|-66-4-222-4-66-4-22--|
Ab|-66-2-222-4-66-4-22--|
Eb|-44---000-2-44-2-00--| x4

Eb|-16----14-------14-------14--16----14-------14-11h12p11p9----|
Bb|----16----11-12----11h12--------16----11-12--------------12--|
Gb|-------------------------------------------------------------|
Db|-------------------------------------------------------------|
Ab|-------------------------------------------------------------|
Eb|-------------------------------------------------------------|

Eb|--16-14-18-16-19-14-18p16-19--|
Bb|------------------------------|
Gb|------------------------------|
Db|------------------------------|
Ab|------------------------------|
Eb|------------------------------|

Eb|--14-11-16--11-9-14--11-9-11-7~--|
Bb|---------------------------------|
Gb|---------------------------------|
Db|---------------------------------|
Ab|---------------------------------|
Eb|---------------------------------|


“I don't feel a thing…”

Eb|-----------|
Bb|-----------|
Gb|--4444444--|
Db|--xxxxxxx--|
Ab|--2222222--|
Eb|-----------| x4


"Some thing that you do..."

Pre-Chorus:

Eb|--------------------------------------------------------------|
Bb|--------------------------------------------------------------|
Gb|-1313131313-161616161616-181818-202020--4444444444------------|
Db|--x-x-x-x-x--x-x-x-x-x-x--x-x-x--x-x-x--4444444444-222222222--|
Ab|-1111111111-141414141414-161616-181818--2222222222-222222222--|
Eb|---------------------------------------------------000000000--|


Chorus:

Eb|-----------------------------------------|
Bb|-----------------------------------------|
Gb|-44444444-----------44444444-------------|
Db|-44444444-22222222--44444444-222222222---|
Ab|-22222222-22222222--22222222-222222222---|
Eb|----------00000000-----------000000000---|

Eb|------------------------------------------|
Bb|------------------------------------------|
Gb|---------------------444444444------------|
Db|--66666666-22222222--444444444-44444444---|
Ab|--66666666-22222222--222222222-44444444---|
Eb|--44444444-00000000------------22222222---|

Eb|----------------------------------------11h12p11p0----|
Bb|--12p99-12p99-14p9h12p9-7h9-12p99-12p99-----------12--|
Gb|------------------------------------------------------|
Db|------------------------------------------------------|
Ab|------------------------------------------------------|
Eb|------------------------------------------------------|

Eb|---------------------------------------|
Bb|--12p99-12p99-14p9h12p9-7h9------------|
Gb|---------------------------------------|
Db|----------------------------66-44-2x---|
Ab|----------------------------66-44-2x---|
Eb|----------------------------44-22-0x---|

Добавлено: 26.06.2012
Другие материалы по этой песне:
  • Аккорды и текст

Страница создана 20.03.2012
http://primanota.ru/set-your-goals/an-old-book-misread-chords.htm
Привет, Гость.
Предлагаем пройти революционный курс по гитаре.
Подарок от PrimaNota.Ru, забирай!