PrimaNota.ru - самый крупный в мире бесплатный архив песенных текстов, аккордов, табулатур и нот


Set It Off - Together Forever - таба, видео

Регистрация Запомнить меня
Войти через:  Facebook Google Twitter Vk Yandex Mail.ru

Set It Off - Together Forever - таба, видео

Печатать
Просмотров: 109
INTRO

Electric 1

E|----------------------------------|
B|-15-15r11h13r11----------18(hold)-|
G|----------------15-17-19----------|
D|----------------------------------|
A|----------------------------------|
D|----------------------------------|

Electric 2

E|-------|
B|-------|
G|-------|
D|-1-8-3-|
A|-1-8-3-|
D|-1-8-3-|

Electric 3
(repeatedly)
E|------------|
B|------10----|
G|---10----10-|
D|-8----------|
A|------------|
D|------------|

Electric 4/Violin

E|-18-17----18-17----------|
B|-------18-------15-13----|
G|----------------------15-|
D|-------------------------|
A|-------------------------|
D|-------------------------|

VERSE

Electric 1
(each section played more than once, cept for last)
(listening to the song will make it easier :D)
E|-------  -------  --------  ----|
B|-------  -------  --------  -17-|
G|-15----  -14----  --15----  -x--|
D|----12-  ----12-  -----12-  -15-|
A|-------  -------  --------  ----|
D|-------  -------  --------  ----|

Electric 2

E|-------|
B|-------|
G|-------|
D|-1-8-3-|
A|-1-8-3-|
D|-1-8-3-|

PRE-CHORUS

Electric 1
(each section played more than once)
(listening to the song will make it easier :D)
E|-------  -------  --------  -------|
B|-------  -------  --------  -------|
G|-15----  -14----  --15----  -17----|
D|----12-  ----12-  -----12-  ----15-|
A|-------  -------  --------  -------|
D|-------  -------  --------  -------|

Electric 2

E|-------|
B|-------|
G|-------|
D|-5-8-3-|
A|-5-8-3-|
D|-5-8-3-|

CHORUS

Electric 1

E|-------|
B|-------|
G|-7-5-3-|
D|-x-x-x-|
A|-5-3-1-|
D|-------|

Electric 2

E|-------|
B|-------|
G|-------|
D|-8-3-1-|
A|-8-3-1-|
D|-8-3-1-|

Electric 4/Violin

E|----------|
B|----------|
G|-15-14-12-|
D|-x--x--x--|
A|-13-12-10-|
D|----------|

POST

Electric 1
(repeatedly)
E|----|
B|----|
G|-15-|
D|-x--|
A|-13-|
D|----|

Electric 2

E|---------|
B|---------|
G|---------|
D|-8-3-5-1-|
A|-8-3-5-1-|
D|-8-3-5-1-|

VERSE

Electric 1

E|-------------------|
B|----11----10-11-11-|
G|-10----10----------|
D|-------------------|
A|-------------------|
D|-------------------|

Electric 2

E|-------|
B|-------|
G|-------|
D|-1-8-3-|
A|-1-8-3-|
D|-1-8-3-|

PRE-CHORUS

Electric 1

E|-------------------|
B|----11----10-11-11-|
G|-10----10----------|
D|-------------------|
A|-------------------|
D|-------------------|

Electric 2

E|---------|
B|---------|
G|---------|
D|-5-1-8-3-|
A|-5-1-8-3-|
D|-5-1-8-3-|

CHORUS

POST

BRIDGE

Electric 1
            (repeatedly)
E|--------------------|
B|--------------------|
G|-15-14-12-10--10h12-|
D|-x--x--x---x--------|
A|-13-12-10--8--------|
D|--------------------|

CHORUS
Добавлено: 08.06.2013
Другие материалы по этой песне:
  • Аккорды и текст

Страница создана 08.06.2013
http://primanota.ru/set-it-off/together-forever-chords.htm
Привет, Гость.
Предлагаем пройти революционный курс по гитаре.
Подарок от PrimaNota.Ru, забирай!