PrimaNota.ru - самый крупный в мире бесплатный архив песенных текстов, аккордов, табулатур и нот


Set It Off - Text Me Kelly - таба, видео

Регистрация Запомнить меня
Войти через:  Facebook Google Twitter Vk Yandex Mail.ru

Set It Off - Text Me Kelly - таба, видео

Печатать
Просмотров: 99
-------------------------------------------------------------------------------
                             Text Me, Kelly - Set It Off
-------------------------------------------------------------------------------
Tabbed by: daleksbutthole
E-mail:

Tuning: DADGBE

Guitar 1: Dan
e|-----------------------------------------------------------------------------------------------|
B|-----------------------------------------------------------------------------------------------|
G|-15-15-15-15-15-15-15-15-15-15-15-15-15-15-15/16-16-16-16-16-16-16-16-16-16-16-16-16-16-16-16--|
D|-x--x--x--x--x--x--x--x--x--x--x--x--x--x--x-/-x--x--x--x--x--x--x--x--x--x--x--x--x--x--x--x--|
A|-13-13-13-13-13-13-13-13-13-13-13-13-13-13-13/14-14-14-14-14-14-14-14-14-14-14-14-14-14-14-14--|
D|-----------------------------------------------------------------------------------------------|

e|---------------------------------------------------------------------------|
B|---------------------------------------------------------------------------|
G|-15-15-15-15-15-15-15-15-15-15-15-15-15-15-15/1616----1616-----------------|
D|-x--x--x--x--x--x--x--x--x--x--x--x--x--x--x-/-x-x-----x-x-----------------|
A|-13-13-13-13-13-13-13-13-13-13-13-13-13-13-13/1414----1414-----------------|
D|---------------------------------------------------------------------------|

e|---------------------------------------------------------------------------|
B|---------------------------------------------------------------------------|
G|-15-15-15-15-15-15-13-13-13-13-13-13-12-12-12-12---------------------------|
D|--x--x--x--x--x--x--x--x--x--x--x--x--x--x--x--x---------------------------|
A|-13-13-13-13-13-13-11-11-11-11-11-11-10-10-10-10---------------------------|
D|---------------------------------------------------------------------------| X2

e|--------------------------------------------------------------------------------------------|
B|--------------------------------------------------------------------------------------------|
G|-10-10-10-10-10-10-12-12-12-12-12-12-12-8-8-8-8-8-8-8-8-10-10-10-10-12-12-12-12-15-15-15-15-|
D|-x--x--x--x--x--x--x--x--x--x--x--x--x--x-x-x-x-x-x-x-x-x--x--x--x--x--x--x--x--x--x--x--x--|
A|-8--8--8--8--8--8--10-10-10-10-10-10-10-6-6-6-6-6-6-6-6-8--8--8--8--10-10-10-10-13-13-13-13-|
D|--------------------------------------------------------------------------------------------|

e|---------------------------------------------------------------------------|
B|---------------------------------------------------------------------------|
G|-15-15-15-15-15-15-13-13-13-13-13-13-12-12-12-12---------------------------|
D|--x--x--x--x--x--x--x--x--x--x--x--x--x--x--x--x---------------------------|
A|-13-13-13-13-13-13-11-11-11-11-11-11-10-10-10-10---------------------------|
D|---------------------------------------------------------------------------| X2

e|---------------------------------------------------------------------------|
B|---------------------------------------------------------------------------|
G|--10-10-10-10-10-10-12-12-12-12-12-12-12-----------------------------------|
D|--x--x--x--x--x--x--x--x--x--x--x--x--x------------------------------------|
A|--8--8--8--8--8--8--10-10-10-10-10-10-10-----------------------------------|
D|---------------------------------------------------------------------------|

e|---------------------------------------------------------------------------|
B|---------------------------------------------------------------------------|
G|--8-8-8-8-12-12-12-12-10-10-10-10-8-8-8-8-10-10-10-10----------------------|
D|--x-x-x-x-x--x--x--x--x--x--x--x--x-x-x-x-x--x--x--x-----------------------|
A|--6-6-6-6-10-10-10-10-8--8--8--8--6-6-6-6-8--8--8--8-----------------------|
D|---------------------------------------------------------------------------|

************************************

| /   slide up
| \   slide down

************************************
Добавлено: 11.09.2015
Вам также может быть интересно:
Другие материалы по этой песне:
  • Аккорды и текст

Страница создана 11.09.2015
http://primanota.ru/set-it-off/text-me-kelly-chords.htm
Привет, Гость.
Предлагаем пройти революционный курс по гитаре.
Подарок от PrimaNota.Ru, забирай!