PrimaNota.ru - самый крупный в мире бесплатный архив песенных текстов, аккордов, табулатур и нот


Set It Off - Reply - таба, видео

Регистрация Запомнить меня
Войти через:  Facebook Google Twitter Vk Yandex Mail.ru

Set It Off - Reply - таба, видео

Печатать
Просмотров: 129
Уроки эстрадного вокала в Санкт-Петербурге
-------------------------------------------------------------------------------
                             @Reply - Set It Off
-------------------------------------------------------------------------------
Tabbed by: Claine
E-mail: 
                              Attention
           This Tab is still in development.But dont be sad... More will come sooner or later
            Listen to the song to get the rythm of it, so you can play it correct.
Pm= Palm muted
Tuning: Drop-C

 Opening (Palm muted)
d#|-----------------------------------------------------------------|
A#|----------------------------------------------------\---/--------|
F#|-------------------------------------------------------/_|_-\-/--|
C#|---------------------------------------------------------|---\---|
G#|-------2--3-2----2-0----------2--3-2-6--2-0---------/----|--/-\--|
C#|---2-5--------5------5-2----5---------------5-2------------------|

  After the 2nd time comes this:(Palm muted)
d#|-----------------------------------------------|
A#|-----------------------------------------------|
F#|-----------------------------------------------|
C#|-----------------------------------------------|
G#|-----------------------------------------------|
C#|---0--00--000---0000--------00----000---0000---|

 Then a Mini Solo
d#|------------------------------------------------------------|
A#|------------------------------------------------------------|
F#|-----7-7-7\5\3---9-9/10\9---------------7-7-7\5\3---9-9/10--|
C#|-----x-x-x-x-x---x-x--x-x---------------x-x-x-x-x---x-x--x--|
G#|-----5-5-5\3\1---7-7/-8\7---------------5-5-5\3\1---7-7/-8--|
C#|------------------------------------------------------------|
  Vers (Palm muted)
d#|------------------------------------------------------|
A#|------------------------------------------------------|
F#|------------------------------------------------------|
C#|------------------------------------------------------|
G#|----------------5-5-5-5-------------------------------|
C#|----0-00--000-----------7-7-7-7---3-3-3-3---5-5-5-5---|

d#|-----------------------------------------------------------------|
A#|-----------------------------------------------------------------|
F#|-----------------------------------------------------------------|
C#|----------------------------------3-3-3-3--7-7-7-7---------------|
G#|-----------------5-5-5-5----------3-3-3-3--7-7-7-7---------------|
C#|----0-00--000------------5-5-5-5--3-3-3-3--7-7-7-7---------------|
                                     Release Palm mute while 
                                     playing the end
Pre-Chorus
d#|-----------------------------------------|
A#|------------------------------\--/-------|
F#|--7-7-7----------------6-6-6----/_|_-\-/-|
C#|--7-7-7--7-7-7--3-3-3--6-6-6------|---\--|
G#|--5-5-5--7-7-7--3-3-3--4-4-4--/---|--/-\-|
C#|---------7-7-7--3-3-3--------------------|

Chorus 
d#|-----------------------------------------|
A#|------------------------------\--/*\-----|
F#|--7-7-7----------------6-6-6-------/--\-/|
C#|--7-7-7--7-7-7--3-3-3--6-6-6------/----\-|
G#|--5-5-5--7-7-7--3-3-3--4-4-4--/--/__--/-\|
C#|---------7-7-7--3-3-3--------------------|

Bridge
d#|--------------------------------------|
A#|-----------------------------/--------|
F#|---7-----7--7--7---7-6-7----/_|_-\-/--|
C#|---x-----x--x--x---x-x-x------|---\---|
G#|---5-----5--5--5---5-4-5------|--/-\--|
C#|--------------------------------------|

Outro = Minisolo x3
d#|------------------------------------------------------------|
A#|------------------------------------------------------------|
F#|-----7-7-7\5\3---9-9/10-xxx--------------7-7-7\5\3---9-9/10-|
C#|-----x-x-x-x-x---x-x--x-xxx--------------x-x-x-x-x---x-x--x-|
G#|-----5-5-5\3\1---7-7/-8-xxx--------------5-5-5\3\1---7-7/-8-|
C#|------------------------------------------------------------|
************************************

| /   slide up
| \   slide down
| h   hammer-on
| p   pull-off
| ~   vibrato
| +   harmonic
| x   Mute note
| b   Bend
| pb  Pre-bend
| br  Bend release
| pbr Pre-bend release
| brb Bend release bend

************************************
Добавлено: 11.09.2015
Другие материалы по этой песне:
  • Аккорды и текст

Страница создана 11.09.2015
http://primanota.ru/set-it-off/reply-chords.htm
Привет, Гость.
Предлагаем пройти революционный курс по гитаре.
Подарок от PrimaNota.Ru, забирай!