PrimaNota.ru - самый крупный в мире бесплатный архив песенных текстов, аккордов, табулатур и нот


Set Fire To Flames - Love Song For 15 Ontario With Singing Police Car - таба, видео

Регистрация Запомнить меня
Войти через:  Facebook Google Twitter Vk Yandex Mail.ru

Set Fire To Flames - Love Song For 15 Ontario With Singing Police Car - таба, видео

Печатать
Просмотров: 114
e---1---1-4---4-------1------| x4
b-----2-----6---2---2---2----|
g-----------------3----------|
D---3----3-------------------|
A---------------1-----1------|
E----------------------------|

e----------------------| x2
b--2-2---1---4-4-1-----|
g----------------------|
D----------------------|
A--4-------------------|
E----------------------|

e----------------------| x2
b--1-1---1---1---------|
g--------------3-2-----|
D----------------------|
A--3-------------------|
E----------------------|

e--------------------------------------|
b--1-1---1---1-2------1-1---1---4-1----|
g--------------------------------------|
D--------------------------------------|
A--------------------------------------|
E--------------------------------------|

e----------------------| x2
b--1-1---1---1---------|
g--------------3-------|
D----------------------|
A----------------------|
E----------------------|

And repeat
Добавлено: 25.07.2015
Другие материалы по этой песне:
  • Аккорды и текст

Страница создана 25.07.2015
http://primanota.ru/set-fire-to-flames/love-song-for-15-ontario-with-singing-police-car-chords.htm
Привет, Гость.
Предлагаем пройти революционный курс по гитаре.
Подарок от PrimaNota.Ru, забирай!