PrimaNota.ru - самый крупный в мире бесплатный архив песенных текстов, аккордов, табулатур и нот


Servotron - Serve Obey Guard Men From Harm - бас-таба, видео

Регистрация Запомнить меня
Войти через:  Facebook Google Twitter Vk Yandex Mail.ru

Servotron - Serve Obey Guard Men From Harm - бас-таба, видео

Печатать
Просмотров: 128
Уроки эстрадного вокала в Санкт-Петербурге
-------------------------------------------------------------------------------
                             Serve, Obey, Guard Men From Harm - Servotron
-------------------------------------------------------------------------------
Tabbed by: me
E-mail: some random email

Tuning: Standard

Main bit (from 0:12-0:30)
G|---------------------------------------------------------------------------|
D|---------------------------------------------------------------------------| X4
A|--7-7-7-7---------------7-7-7-7--------------------------------------------|
E|----------15-15-15-15-------------15-15-17-17------------------------------|

Other Bit (from 0:30-0:40)
G|---------------------------------------------------------------------------|
D|---------------------------------------------------------------------------|
A|---------------------7-7-7-7-----------------------------------------------| X4
E|---9-9-9-9--7-7-7-7----------7-7-7-7---------------------------------------|

Repeat above one more time then changes to

 filler bit (1:08-1:29)
G|---------------------------------------------------------------------------|      
D|---------------------------------------------------------------------------|      
A|---9-9-9-9-9-9-9-7-7-7-7-7-7-7-5-5-5-5-5-5-5-4-4-4-4-4-4-4-----------------| X2
E|---------------------------------------------------------------------------
     
G|-------------------------------------------------------------------------------|
D|-------------------------------------------------------------------------------|
A|-9-9-9-9-9-9-9-11-11-11-11-11-11-11-14-14-14-14-14-14-14-16-16-16-16-16-16-16--| X2
E|-------------------------------------------------------------------------------|


there is a random riff that is played once(1:44-1:48) that sounds amazing but I cant tab it unfortunately, 
too fast for me to pick up really. So just improvise that bit.
Listen to song for exact timings and exact changes


| /  slide up
| \  slide down
| h  hammer-on
| p  pull-off
| ~  vibrato
| +  harmonic
| x  Mute note
===============================================================================
Добавлено: 06.06.2016
Вам также может быть интересно:
Другие материалы по этой песне:
  • Аккорды и текст

Страница создана 06.06.2016
http://primanota.ru/servotron/serve-obey-guard-men-from-harm-chords.htm
Привет, Гость.
Предлагаем пройти революционный курс по гитаре.
Подарок от PrimaNota.Ru, забирай!