PrimaNota.ru - самый крупный в мире бесплатный архив песенных текстов, аккордов, табулатур и нот


Serum 114 - Wieder Hier - аккорды и текст, видео

Регистрация Запомнить меня
Войти через:  Facebook Google Twitter Vk Yandex Mail.ru

Serum 114 - Wieder Hier - аккорды и текст, видео

Печатать
Просмотров: 51
Новый альбом группы 'Черный Кузнец' по культовому сериалу 'Сверхъестественное'!
Wieder Hier
Serum 114
Tuning: half down

E5    (D5)

  INTRO
     E5                           B5                   B5                        E5
D#|----------------------------|--------------------|-------------------------|----------------------------|
A#|----------------------------|--------------------|-------------------------|----------------------------|
F#|----------------------------|--------------------|-------------------------|----------------------------|
C#|----------------------------|--------------------|-------------------------|----------------------------|
G#|--14-14----15-14----12s10---|--9--9-----10-9-----|--9--9-----7--9--9--7s5--|--7--7----7s9--7-----12--12-|
D#|----------------------------|--------------------|-------------------------|----------------------------|

     E5                           B5                         B5                          E5
D#|----------------------------|--------------------------|---------------------------|--------------------|
A#|----------------------------|--------------------------|---------------------------|--------------------|
F#|----------------------------|--------------------------|---------------------------|--------------------|
C#|----------------------------|--------------------------|---------------------------|--------------------|
G#|--14-14----15-14-14-12s10---|--9--9----9s10--9---------|--9--9-----7--9--9--7s5----|--7--7-----9--7-----|
D#|----------------------------|--------------------------|---------------------------|--------------------|


VERSE
            E                         B
Ich geh die Straße entlang, Gesichter kleben an mir
                                E
Ein Kind weint, ungläubiges Geflüster im Ohr
            E                           B
Ich geh die Straße entlang und es steht keiner im Weg
                                 E
feige und namenlos der Ort, doch sie warn immer schon so


   Solo 1
                E5                          B5                    B5                          E5
D#|----------|---------------------------|---------------------|---------------------------|------------------
A#|----------|---------------------------|---------------------|---------------------------|------------------
F#|----------|--16-16----17-16----14s12--|--11-11----12-11-----|--11-11----9--11-11-9s-7---|--9--9----9s11--9-
C#|----------|---------------------------|---------------------|---------------------------|------------------
G#|--12-12---|---------------------------|---------------------|---------------------------|------------------
D#|----------|---------------------------|---------------------|---------------------------|------------------


VERSE
           E
Hast du gewettet auf mich
             B
Warst du ein Narr und bist jetzt reich
              B
Und du liegst unter der Erde
             E
Warst du ein Narr? Warst du mein Feind?
        G                         D
Aus der Hölle verband, vom Teufel wieder ausgespuckt
           A     
Von Gott bedauert, dem Pfaffen gehasst 
         C
Und allen andern verflucht


CHORUS
             G                       D
Doch ich bin wieder hier, ja ich bin wieder da
      A                       E
Und stehe hier vor dir, wer hätte das gedacht
     G                          D
Doch ich bin wieder hier, habt ihr mich tot gesagt
    A                              E
"Nicht mehr lang" glaubt ihr, doch ich bin wieder da


E5


VERSE
         E                        B
Ich gehe weiter den Weg dahin wo ich mal herkam
          B                               E
Und trage nicht mehr bei mir als ein Mann nicht brauchen kann
         E                        B
Ich gehe weiter den Weg war mal zuhause hier
      B                   E
Und erinnere mich an gute Zeiten mit dir
        

SOLO 2
    E                         B                 B                  E
D#|------------------------|-----------------|------------------|--------------------|
A#|------------------------|-----------------|------------------|--------------------|
F#|-16-16---17-16---14/12--|--14-14---12-11--|--11--------------|--------------------|
C#|------------------------|-----------------|------------------|--------------------|
G#|------------------------|-----------------|-----14--12-10-9--|--9s10-9s10-7---7-9-|
D#|------------------------|-----------------|------------------|--------------------|

     G                         D                A                    C                E
D#|-------------------------|---------------|---------------------|----------------|-----
A#|-------------------------|---------------|---------------------|----------------|-----
F#|-------------------------|---------------|---9-9--11-9--14-12--|--16-16--17-16--|--9--
C#|-------------------------|---------------|---------------------|----------------|-----
G#|--10-10--12--14--12--10--|--9-9--10--12--|---------------------|----------------|-----
D#|-------------------------|---------------|---------------------|----------------|-----


VERSE
          E                                  B
Glaubtest du dass ich noch lebe dann hat die Hoffnung gesiegt
           B                               E
Hast du geglaubt ich komm wieder warst du naiv und verliebt
    G                                  D
Aus dem Himmel verbannt, von Gaunern respektiert
             A                                     C
Von den Bullen gejagt, den Frauen geliebt dem Rest für tot erklärt
            E                          B
Ich geh die Straße entlang bin auf dem Weg zu dir
             B                                 E
Hör nur noch mein Herz schlagen steh ich gleich vor deiner Tür
         G                     D
Ich ging die Straße entlang war verlassen vom Glück
    A                    C
Hab nie aufgegeben und jetzt bin ich zurück
        


CHROUS
       G                      D
Ja ich bin wieder hier Ja ich bin wieder da
      A                      C
Und stehe hier vor dir wer hätte das gedacht
             G                         D
Doch ich bin wieder hier habt ihr mich tot gesagt
        A                             C
"Nicht mehr lang" glaubt ihr doch ich bin wieder da
           G                            D
Ja ich bin immer noch hier nach all dem was man von mir sagt
       A                        C
Und stehe wieder vor dir. ja ja, wer hätte das gedacht
         G                             D
Doch ich bin immer noch hier habt ihr mich tot gesagt
    A                              C                 D E
"Nicht mehr lange" glaubt ihr doch ich bin wieder... Immer noch
Добавлено: 22.01.2018
Другие материалы по этой песне:
  • Аккорды и текст

Страница создана 22.01.2018
http://primanota.ru/serum-114/wieder-hier-chords.htm
Привет, Гость.
Предлагаем пройти революционный курс по гитаре.
Подарок от PrimaNota.Ru, забирай!