PrimaNota.ru - самый крупный в мире бесплатный архив песенных текстов, аккордов, табулатур и нот


Serj Tankian - Uneducated Democracy - текст песни, таба, видео

Регистрация Запомнить меня
Войти через:  Facebook Google Twitter Vk Yandex Mail.ru

Serj Tankian - Uneducated Democracy - текст песни, таба, видео

Печатать
Просмотров: 360
Уроки эстрадного вокала в Санкт-Петербурге
-------------------------------------------------------------------------------
                             Uneducated Democracy - Serj Tankian
-------------------------------------------------------------------------------
This Song is from Serj Tankians new Album "Harakiri" which he released on the 6. Juli 2012

Tabbed by: peaceman
E-mail: fahrraddach@yahoo.de
Date: 9. Juli 2012

Tuning:  Drop D

D = Strum Down ; U = Strum Up

Intro:

e |----------------------------------------------------------|
B |----------------------------------------------------------|  4x
g |--7-------------5-----------------------------------------|
d |--7--x----------5-----5--5--x-x---------------------------|
a |--5--x--7--x-x--3--x--5--5--x-x---------------------------|
a |-----x--7--x-x-----x--5--5--x-x---------------------------|I

     D  D  U  U D  U  U  D  D  D U

Verse:

e|-----------------------------------------------------------|
B|-----------------------------------------------------------|
G|---2--2-----2--2--------------5--5-------------------------|
D|---2--2-----2--2-----5--5-----5--5-------------------------|     4x
A|---0--0-----0--0-----5--5-----3--3-------------------------|
E| --------------------5--5----------------------------------|

Interlude:

        Method 1                                           Method 2
e|---------------------------------|------------------------------------------|
B|---------------------------------|------------------------------------------|
G|---------------------------------|------------------------------------------|       4x
D|-------------2-------------------|------------------------------------------|
A|----0-0-0-0----------------------|---------------7------------------------- |
E|---------------------------------|------7-7-7-7-----------------------------|


Heavy Riff:


e|--------------------------------------------------------------------------------|
B|--------------------------------------------------------------------------------|
G|--------------------------------------------------------------------------------|   2x
D|----------------------------------7---------------------------------------------|
A|--7---5---7---5---7---5---7---5---7----10--12---10---13--12---------------------|
E|--7---5---7---5---7---5---7---5---7----10--12---10---13--12---------------------|

e|-------------------------------------------------|
B|-------------------------------------------------|  4x
G|-------------------------------------------------|
D|----7--------------------------------------------|
A|----7----10--12---10---13--12--------------------|
E|----7----10--12---10---13--12--------------------|


Play this Riff like Chop Suey!
e|----------------------------|            |-----------------------------------------------|
B|----------------------------|            |-----------------------------------------------|
G|----------------------------|   3x       |-----------------------------------------------|
D|----------------------------|            |-----------------------------------------------|
A|--14-13----13-12----17-16---|            |---14-13----10-9----7-6------------------------|
E|--14-13----13-12----17-16---|            |---14-13----10-9----7-6------------------------|

     (8x)     (4x)     (4x)                   (8x)     (4x)     (4x)

e|-------------------------------------------------|
B|-------------------------------------------------|  4x
G|-------------------------------------------------|
D|----7--------------------------------------------|
A|----7----10--12---10---13--12--------------------|
E|----7----10--12---10---13--12--------------------|


Play this Riff like Chop Suey!
e|----------------------------|            |-----------------------------------------------|
B|----------------------------|            |-----------------------------------------------|
G|----------------------------|   3x       |-----------------------------------------------|
D|----------------------------|            |-----------------------------------------------|
A|--14-13----13-12----17-16---|            |---14-13----10-9----7-6------------------------|
E|--14-13----13-12----17-16---|            |---14-13----10-9----7-6------------------------|

     (8x)     (4x)     (4x)                   (8x)     (4x)     (4x)


Verse:

e|-----------------------------------------------------------|
B|-----------------------------------------------------------|
G|---2--2-----2--2--------------5--5-------------------------|
D|---2--2-----2--2-----5--5-----5--5-------------------------|     4x
A|---0--0-----0--0-----5--5-----3--3-------------------------|
E| --------------------5--5----------------------------------|

Another Heavy Riff:

e|----------------------|
B|----------------------|
G|----------------------|       4x
D|----------------------|
A|---10---8---6---5-----|
E|---10---8---6---5-----|

e|-------------------------------|
B|-------------------------------|
G|-------------------------------|       4x
D|-------------------------------|
A|---10-10---8-8---6-6---5-5-----|
E|---10-10---8-8---6-6---5-5-----|

Bridge:

Guitar 1
e|---------------------------|
B|---------------------------|
G|---------------------------|   8x
D|---------------------------|
A|----0--0-3p0--5p0--3p0-0---|
E|---------------------------|

Guitar 2
e|--------------------------------------------------|
B|--------------------13--15--13--12----------------|
G|----9---11----------------------------------------|   2x
D|------------9-------------------------------------|
A|--------------------------------------------------|
E|--------------------------------------------------|

Bridge Part2:

Not sure about this one.

e|------------------------------------------------------------------------------|
B|------------------------------------------------------------------------------|
G|------------------------------------------------------------------------------|
D|----6-5-6-5-6-5-6-5--5-4-5-4--4-5-4-------------------------------------------|  8x
A|------------------------------------------------------------------------------|
E|------------------------------------------------------------------------------|

Bridge Part3:

Guitar 1
e|-------------------------|
B|-------------------------|
G|-------7-----6-----------|
D|----5-----5--------------|
A|-------------------------|
E|-------------------------|

Guitar 2
e|-----------------------------------|
B|-----------------------------------|
G|---9-x-9-x-9---9-x-9-x-9-----------|
D|---9-x-9-x-9---9-x-9-x-9-----------|
A|-----------------------------------|
E|-----------------------------------|
     D D U U D   D D U U D

Bridge Part4:

e|---------------------------------------------------------------------------|
B|---------------------------------------------------------------------------|
G|---------------------------------------------------------------------------|
D|--15--13-----------------------15--13--------------------------------------|
A|----------17--15-----15--17-----------17--15----15-17----------------------|
E|------------------17--------------------------17---------------------------|

Bridge Part2:

Not sure about this one.

e|------------------------------------------------------------------------------|
B|------------------------------------------------------------------------------|
G|------------------------------------------------------------------------------|
D|----6-5-6-5-6-5-6-5--5-4-5-4--4-5-4-------------------------------------------|  4x
A|------------------------------------------------------------------------------|
E|------------------------------------------------------------------------------|

Interlude:

        Method 1                                           Method 2
e|---------------------------------|------------------------------------------|
B|---------------------------------|------------------------------------------|
G|---------------------------------|------------------------------------------|    4x
D|-------------2-------------------|------------------------------------------|
A|----0-0-0-0----------------------|---------------7------------------------- |
E|---------------------------------|------7-7-7-7-----------------------------|


Heavy Riff:


e|--------------------------------------------------------------------------------|
B|--------------------------------------------------------------------------------|
G|--------------------------------------------------------------------------------|   2x
D|----------------------------------7---------------------------------------------|
A|--7---5---7---5---7---5---7---5---7----10--12---10---13--12---------------------|
E|--7---5---7---5---7---5---7---5---7----10--12---10---13--12---------------------|

e|-------------------------------------------------|
B|-------------------------------------------------|  4x
G|-------------------------------------------------|
D|----7--------------------------------------------|
A|----7----10--12---10---13--12--------------------|
E|----7----10--12---10---13--12--------------------|

Play this Riff like Chop Suey!

e|----------------------------|            |-----------------------------------------------|
B|----------------------------|            |-----------------------------------------------|
G|----------------------------|   3x       |-----------------------------------------------|
D|----------------------------|            |-----------------------------------------------|
A|--14-13----13-12----17-16---|            |---14-13----10-9----7-6------------------------|
E|--14-13----13-12----17-16---|            |---14-13----10-9----7-6------------------------|

     (8x)     (4x)     (4x)                   (8x)     (4x)     (4x)


Verse:

e|----------------------------------------------------|
B|----------------------------------------------------|
G|---2--2-----2--2--------------5--5------------------|
D|---2--2-----2--2-----5--5-----5--5------------------|     4x
A|---0--0-----0--0-----5--5-----3--3------------------|
E| --------------------5--5---------------------------|


e|-----------------------------------------------------|
B|-----------------------------------------------------|
G|-------------------------------3--3------------------|
D|----5--5-----5--5-----3--3-----3--3------------------|     2x
A|----5--5-----5--5-----3--3-----1--1------------------|
E|----5--5-----5--5-----3--3---------------------------|


e|----------------------------------------------------|
B|----------------------------------------------------|
G|---2--2-----2--2--------------5--5------------------|
D|---2--2-----2--2-----5--5-----5--5------------------|     2x
A|---0--0-----0--0-----5--5-----3--3------------------|
E| --------------------5--5---------------------------|

Outro Chorus:

e|-----------------------------------------------------------|
B|-----------------------------------------------------------|
G|-----------------------------------------------------------|       2x
D|-----------------------------------------------------------|
A|---10---12-13---10---12-13----10---8---6---5---------------|
E|---10---12-13---10---12-13----10---8---6---5---------------|

e|-------------------------------|
B|-------------------------------|
G|-------------------------------|       4x
D|-------------------------------|
A|---10-10---8-8---6-6---5-5-----|
E|---10-10---8-8---6-6---5-5-----|

e|-----------------------------------------------------------|
B|-----------------------------------------------------------|
G|-----------------------------------------------------------|       2x
D|-----------------------------------------------------------|
A|---10---12-13---10---12-13----10---8---6---5---------------|
E|---10---12-13---10---12-13----10---8---6---5---------------|


e|-------------------------------|
B|-------------------------------|
G|-------------------------------|       4x
D|-------------------------------|
A|---10-10---8-8---6-6---5-5-----|
E|---10-10---8-8---6-6---5-5-----|




Have Fun!!
************************************

| /   slide up
| \   slide down
| h   hammer-on
| p   pull-off
| ~   vibrato
| +   harmonic
| x   Mute note
| b   Bend
| pb  Pre-bend
| br  Bend release
| pbr Pre-bend release
| brb Bend release bend

************************************
Добавлено: 08.07.2013
Другие материалы по этой песне:
  • Аккорды и текст

Страница создана 08.07.2013
http://primanota.ru/serj-tankian/uneducated-democracy-chords.htm
Привет, Гость.
Предлагаем пройти революционный курс по гитаре.
Подарок от PrimaNota.Ru, забирай!