PrimaNota.ru - самый крупный в мире бесплатный архив песенных текстов, аккордов, табулатур и нот


Serj Tankian - Cornucopia - аккорды и текст, таба, бас-таба, видео

Регистрация Запомнить меня
Войти через:  Facebook Google Twitter Vk Yandex Mail.ru

Serj Tankian - Cornucopia - аккорды и текст, таба, бас-таба, видео

Печатать
Просмотров: 286
Cornucopia
Serj Tankian
Tabbed by: urs882

Intro: (let ring)
|-----------------------------------------------------|
|----10-----10-----10-----10------8----8----8----8----|
|------10-10--10-10--10-10--10-10--9-9--9-9--9-9--9-9-|
|-----------------------------------------------------|
|-----------------------------------------------------|
|-----------------------------------------------------|
 P.M.----|

|------------------------------------------------|
|-10-----10-----10-----10------8----8----8----8--| 
|---10-10--10-10--10-10--10-10--9-9--9-9--9-9----|
|------------------------------------------------|
|------------------------------------------------|
|------------------------------------------------|

Chorus
|--------------------------------------------------|
|--------------------------------------------------|
|----------13-13-13-13-13-13-----------13-13-13-13-|   
|-4-4-4-4---------------------4-4-4-4--------------|
|-4-4-4-4--11-11-11-11-11-11--2-2-2-2--11-11-11-11-|
|-2-2-2-2---------------------2-2-2-2--------------|


|---------------------------|
|---------------------------|
|----------8-9-9-9-9-9-8-8--|          }x2
|-4-4-4-4-------------------|
|-4-4-4-4--5-7-7-7-7-7-5-5--|
|-2-2-2-2-------------------|

Verse:
|----------------------------------------------------------------------|
|----------------------------------------------------------------------|
|---------------8-8--6-6-6-6-6-6--8-8----------------------------------| }x3
|--8-8-8-8-8-8--8-8--6-6-6-6-6-6--8-8--4-4-4-4-4-4-4-4-4-4-4-4-4-4-4-4-|
|--8-8-8-8-8-8--6-6--4-4-4-4-4-4--6-6--4-4-4-4-4-4-4-4-4-4-4-4-4-4-4-4-|
|--6-6-6-6-6-6-------------------------2-2-2-2-2-2-2-2-2-2-2-2-2-2-2-2-|

P.M.-------------------------------------------------------------------|

|----------------------------------------------------------------------|
|----------------------------------------------------------------------|
|---------------8-8--6-6-6-6-6-6--8-8----------------------------------|
|--8-8-8-8-8-8--8-8--6-6-6-6-6-6--8-8--4-4-4-4-4-4-4-4-4-4-4-4-4-4-4-4-|
|--8-8-8-8-8-8--6-6--4-4-4-4-4-4--6-6--4-4-4-4-4-4-4-4-4-4-4-4-4-4-4-4-|
|--6-6-6-6-6-6-------------------------2-2-2-2-2-2-2-2-2-2-2-2-2-2-2-2-|

P.M.----------------------------------------------------------|

Pre-chorus: (let ring)
|-------------|
|-------------|
|-------------|  }x4
|-10-10-10-10-|
|-8--7--6--5--|
|-------------|

Chorus:
|--------------------------------------------------|
|--------------------------------------------------|
|----------13-13-13-13-13-13-----------13-13-13-13-|
|-4-4-4-4---------------------4-4-4-4--------------|
|-4-4-4-4--11-11-11-11-11-11--2-2-2-2--11-11-11-11-|
|-2-2-2-2---------------------2-2-2-2--------------|

|---------------------------|
|---------------------------|
|----------8-9-9-9-9-9-8-8--|         }x4
|-4-4-4-4-------------------|
|-4-4-4-4--5-7-7-7-7-7-5-5--|
|-2-2-2-2-------------------|

Verse:
|----------------------------------------------------------------------|
|----------------------------------------------------------------------|
|---------------8-8--6-6-6-6-6-6--8-8----------------------------------| 
|--8-8-8-8-8-8--8-8--6-6-6-6-6-6--8-8--4-4-4-4-4-4-4-4-4-4-4-4-4-4-4-4-|
|--8-8-8-8-8-8--6-6--4-4-4-4-4-4--6-6--4-4-4-4-4-4-4-4-4-4-4-4-4-4-4-4-|
|--6-6-6-6-6-6-------------------------2-2-2-2-2-2-2-2-2-2-2-2-2-2-2-2-|

P.M.-------------------------------------------------------------------|

|----------------------------------------------------------------------|
|----------------------------------------------------------------------|
|---------------8-8--6-6-6-6-6-6--8-8----------------------------------|
|--8-8-8-8-8-8--8-8--6-6-6-6-6-6--8-8--4-4-4-4-4-4-4-4-4-4-4-4-4-4-4-4-|
|--8-8-8-8-8-8--6-6--4-4-4-4-4-4--6-6--4-4-4-4-4-4-4-4-4-4-4-4-4-4-4-4-|
|--6-6-6-6-6-6-------------------------2-2-2-2-2-2-2-2-2-2-2-2-2-2-2-2-|

P.M.----------------------------------------------------------|

Pre-chorus: (let ring)
|-------------|
|-------------|
|-------------|  }x4
|-10-10-10-10-|  
|-8--7--6--5--|
|-------------|

Chorus
|--------------------------------------------------|
|--------------------------------------------------|
|----------13-13-13-13-13-13-----------13-13-13-13-|
|-4-4-4-4---------------------4-4-4-4--------------|
|-4-4-4-4--11-11-11-11-11-11--2-2-2-2--11-11-11-11-|
|-2-2-2-2---------------------2-2-2-2--------------|

|---------------------------|
|---------------------------|
|----------8-9-9-9-9-9-8-8--|    }x4   
|-4-4-4-4-------------------|
|-4-4-4-4--5-7-7-7-7-7-5-5--|
|-2-2-2-2-------------------|

Bridge:
|-------------------------------------------------------------|
|-------------------------------------------------------------|
|-------------------------------------------------------------|    
}x2
|-5-5--5-5-6----5-5--5-3-3-3-3----5-5--5-5-6---5-5--5-8-8-8-8-|
|-5-5--5-5-6----5-5--5-3-3-3-3----5-5--5-5-6---5-5--5-8-8-8-8-|
|-3-3--3-3-4----3-3--3-1-1-1-1----3-3--3-3-4---3-3--3-6-6-6-6-|

let ring
|--------------------------------------------------|
|-10-----10-----10-----10------8----8----8----8----|
|---10-10--10-10--10-10--10-10--9-9--9-9--9-9--9-9-|
|--------------------------------------------------|
|--------------------------------------------------|
|--------------------------------------------------|
 
|------------------------------------------------|
|-10-----10-----10-----10------8----8----8----8--| 
|---10-10--10-10--10-10--10-10--9-9--9-9--9-9----|      }x6
|------------------------------------------------|
|------------------------------------------------|
|------------------------------------------------|

|-----------------------------------------|
|-----------------------------------------|
|-6-6-6-6-8-8-8-8-10-10-10-10-10-10-10-10-|     }x4
|--8-8-8-8-6-6-6-6--8--8--8--8--8--8--8--8|
|-----------------------------------------|
|-----------------------------------------|

P.M.--------------------------------------|

Chorus:
|--------------------------------------------------|
|--------------------------------------------------|
|----------13-13-13-13-13-13-----------13-13-13-13-|
|-4-4-4-4---------------------4-4-4-4--------------|
|-4-4-4-4--11-11-11-11-11-11--2-2-2-2--11-11-11-11-|
|-2-2-2-2---------------------2-2-2-2--------------|
 
|---------------------------|
|---------------------------|
|----------8-9-9-9-9-9-8-8--|      }x4
|-4-4-4-4-------------------|
|-4-4-4-4--5-7-7-7-7-7-5-5--|
|-2-2-2-2-------------------|

Outro: (let ring)
|-------------------|
|-------------------|
|-------------------|
|-10-10-10-10-10-10-|  
|-8--7--6--5--8--7--|
|-------------------|
Добавлено: 11.06.2015
Другие материалы по этой песне:

Страница создана 05.06.2013
http://primanota.ru/serj-tankian/cornucopia-chords.htm
Привет, Гость.
Предлагаем пройти революционный курс по гитаре.
Подарок от PrimaNota.Ru, забирай!